Oops, an error
Loading. Please wait.

The Vaginals - Waterfall tab

70 views 1 this week
no commentswrite comment
1 2 3 4 5
3 more votes to show rating
add to favorites
×
Save as Personal and add changes to this tab that will be seen only by you. Learn more ›
×
You can save this tab as Personal to edit and correct it or add notes. All changes will be seen only by you. Learn more »
launch autoscroll
font size
0
reset
how to read this tab
guitar tuner
edit
Autoscroll
slow
fast
+/-
esc
set tempo
stop
Author
Difficulty
WATERFALL - The Vaginals
Standard Tuning

INTRO
Guitar 1						Guitar 2
 |       |       |       |        |       |       |       |           
|--------------------------------|--------------------------------|
|--------------------------------|--------------------------------|
|5-----5-5-----5---5---5-5-------|5-----5-5-----5---5---5-5-------|
|5-----5-5-----5---5---5-5-------|5-----5-5-----5---5---5-5-------| x3
|3-----3-3-----3---3---3-3-------|3-----3-3-----3---3---3-3-------|
|--------------------------------|--------------------------------|

Both Guitars
 |       |       |       |        |       |       |       |        
|--------------------------------|--------------------------------|
|--------------------------------|--------------------------------|
|5-----5-5-----5---5---5-5---5---|--------------------------------|
|5-----5-5-----5---5---5-5---5---|5-------------------------------|
|3-----3-3-----3---3---3-3---3---|5-------------------------------|
|--------------------------------|3-------------------------------|
 
 |       |       |       |        |       |       |       |        
|--------------------------------|--------------------------------|
|--------------------------------|--------------------------------|
|--------------------------------|--------------------------------|
|--------------------------------|--------------------------------|
|--------------------------------|--------------------------------|
|--------------------------------|--------------------------------|
 
 |       |       |       |             
|--------------------------------|
|--------------------------------|
|--------------------------------|
|----------------------------5---|
|----------------------------5---|
|----------------------------3---|
 
PRE VERSE
Both Guitars
 |       |       |       |             
|--------------------------------|
|--------------------------------|
|5---5---5---5-10--109---9---9-9-|
|5---5---5---5-------------------|
|3---3---3---3-8---8-7---7---7-7-|
|--------------------------------|

 |       |       |       |        |       |       |       |        
|--------------------------------|--------------------------------|
|--------------------------------|--------------------------------|
|7---7---7---7-10--109---9---9-9-|5---5---5---5-------------------|
|7---7---7---7-------------------|5---5---5---5-5---5-5---5---5-5-|
|5---5---5---5-8---8-7---7---7-7-|3---3---3---3-5---5-5---5---5-5-|
|--------------------------------|--------------3---3-3---3---3-3-|
 
 |       |       |       |        |       |       |       |        
|--------------------------------|--------------------------------|
|--------------------------------|--------------------------------|
|--------------------------------|5---5---5---5-10--109---9---9-9-|
|3-3-3---3-3-3---3-3-3---3-3-3---|5---5---5---5-------------------|
|3-3-3---3-3-3---3-3-3---3-3-3---|3---3---3---3-8---8-7---7---7-7-|
|1-1-1---1-1-1---1-1-1---1-1-1---|--------------------------------|
 . .     . .     . .     . .
Guitar 1
 |       |       |       |       
|--------------------------------|
|--------------------------------|
|7---7---7---7-10--109---9---9-9-|
|7---7---7---7-------------------|
|5---5---5---5-8---8-7---7---7-7-|
|--------------------------------|
Guitar 2
 |       |       |       |                
|---------------------------------|
|---------------------------------|
|7---7---7---7-10--1012---12--9-9-|
|7---7---7---7--------------------|
|5---5---5---5-8---8-10---10--7-7-|
|---------------------------------|

Both Guitars
 |       |       |       |
|--------------------------------| 
|--------------------------------|
|5---5---5---5-------------------|
|5---5---5---5-5---5-5---5---5-5-|
|3---3---3---3-5---5-5---5---5-5-|
|--------------3---3-3---3---3-3-|

 |       |       |       |        |       |       |       |        
|--------------------------------|--------------------------------|
|--------------------------------|--------------------------------|
|--------------------------------|----------------------------4---|
|3-3-3---3-3-3---3-3-3---3-3-3---|5-5-5---5-5-5---5-5-5---5-5-4---|
|3-3-3---3-3-3---3-3-3---3-3-3---|5-5-5---5-5-5---5-5-5---5-5-2---|
|1-1-1---1-1-1---1-1-1---1-1-1---|3-3-3---3-3-3---3-3-3---3-3-----|
 . .     . .     . .     . .     . .     . .     . .     . .

VERSE
 |       |       |       |        |       |       |       |        
|--------------------------------|--------------------------------|
|--------------------------------|--------------------------------|
|5-----5-5-----5---5---5-5---4---|5-----5-5-----5---5---5-5---4---|
|5-----5-5-----5---5---5-5---4---|5-----5-5-----5---5---5-5---4---|
|3-----3-3-----3---3---3-3---2---|3-----3-3-----3---3---3-3---2---|
|--------------------------------|--------------------------------|
 
 |       |       |       |        |       |       |       |        
|--------------------------------|--------------------------------|
|--------------------------------|--------------------------------|
|----------------------------4---|5-----5-5-----5---5---5-5---4---| 
|5-----5-5-----5---5---5-5---4---|5-----5-5-----5---5---5-5---4---|
|5-----5-5-----5---5---5-5---2---|3-----3-3-----3---3---3-3---2---|
|3-----3-3-----3---3---3-3-------|--------------------------------|
 
 |       |       |       |        |       |       |       |        
|--------------------------------|--------------------------------|
|--------------------------------|--------------------------------|
|5-----5-5-----5---5---5-5---4---|5-----5-5-----5---5---5-5---4---|
|5-----5-5-----5---5---5-5---4---|5-----5-5-----5---5---5-5---4---|
|3-----3-3-----3---3---3-3---2---|3-----3-3-----3---3---3-3---2---|
|--------------------------------|--------------------------------|
 
 |       |       |       |        |       |       |       |        
|--------------------------------|--------------------------------|
|--------------------------------|--------------------------------|
|----------------------------4---|5-----5-5-----5---5---5-5---9---|
|5-----5-5-----5---5---5-5---4---|5-----5-5-----5---5---5-5---9---|
|5-----5-5-----5---5---5-5---2---|3-----3-3-----3---3---3-3---7---|
|3-----3-3-----3---3---3-3-------|--------------------------------|

CHORUS
 |       |       |       |        |       |       |       |        
|--------------------------------|--------------------------------|
|--------------------------------|--------------------------------|
|10---10-10---10--10--10-10--9---|5-----5-5-----5---5---5-5---4---|
|10---10-10---10--10--10-10--9---|5-----5-5-----5---5---5-5---4---|
|8-----8-8-----8---8---8-8---7---|3-----3-3-----3---3---3-3---2---|
|--------------------------------|--------------------------------|
 
 |       |       |       |        |       |       |       |        
|--------------------------------|--------------------------------|
|--------------------------------|--------------------------------|
|----------------------------4---|5-----5-5-----5---5---5-5---6---|
|5-----5-5-----5---5---5-5---4---|5-----5-5-----5---5---5-5---6---|
|5-----5-5-----5---5---5-5---2---|3-----3-3-----3---3---3-3---7---|
|3-----3-3-----3---3---3-3-------|--------------------------------|

 |       |       |       |        |       |       |       |        
|--------------------------------|--------------------------------|
|--------------------------------|--------------------------------|
|10---10-10---10--10--10-10--9---|5-----5-5-----5---5---5-5---4---|
|10---10-10---10--10--10-10--9---|5-----5-5-----5---5---5-5---4---|
|8-----8-8-----8---8---8-8---7---|3-----3-3-----3---3---3-3---2---|
|--------------------------------|--------------------------------|

 |       |       |       |        |       |       |       |        
|--------------------------------|--------------------------------|
|--------------------------------|--------------------------------|
|----------------------------4---|5-----5-5-----5---5---5-5-------|
|5-----5-5-----5---5---5-5---4---|5-----5-5-----5---5---5-5-------|
|5-----5-5-----5---5---5-5---2---|3-----3-3-----3---3---3-3---7---|
|3-----3-3-----3---3---3-3-------|--------------------------------|

Guitar 2 
 |       |       |       |        |       |       |       |        
|--------------------------------|--------------------------------|
|--------------------------------|--------------------------------|
|--------------------------------|--------------------------------|
|--------------------------------|--------------------------------|
|8---------------7---------------|--------------------------------|
|--------------------------------|10------------------------------|
 
 |       |       |       |        |       |       |       |        
|--------------------------------|--------------------------------|
|--------------------------------|--------------------------------|
|--------------------------------|--------------------------------|
|--------------------------------|--------------------------------|
|--------------------------------|--------------------------------|
|3-------------------------------|--------------------------------|
 
 |       |       |       |        |       |       |       |        
|--------------------------------|--------------------------------|
|--------------------------------|--------------------------------|
|--------------------------------|--------------------------------|
|--------------------------------|--------------------------------|
|--------------------------------|--------------------------------|
|--------------------------------|--------------------------------|

PRE VERSE

VERSE 2					
Guitar 2
 |       |       |       |        
|--------------------------------|
|--------------------------------|
|--------------------------------|
|--------------------------------|
|3---------------------------2---|
|--------------------------------|
 
 |       |       |       |        |       |       |       |        
|--------------------------------|--------------------------------|
|--------------------------------|--------------------------------|
|--------------------------------|--------------------------------|
|--------------------------------|--------------------------------|
|3-----------------------3---2---|----------------------------2---|
|--------------------------------|3-----------------------3-------|
 
 |       |       |       |        |       |       |       |        
|--------------------------------|--------------------------------|
|--------------------------------|--------------------------------|
|--------------------------------|--------------------------------|
|--------------------------------|--------------------------------|
|3---------------------------2---|3---------------------------2---|
|--------------------------------|--------------------------------|
 
 |       |       |       |        |       |       |       |        
|--------------------------------|--------------------------------|
|--------------------------------|--------------------------------|
|--------------------------------|--------------------------------|
|--------------------------------|--------------------------------|
|3-------------3---3-3---3---2---|----------------------------2---|
|--------------------------------|3-------------3---3-3---3-------|
 
 |       |       |       |       
|--------------------------------|
|--------------------------------|
|----------------------------9---|
|----------------------------9---|
|3-------3-----3---3---3-3---7---|
|--------------------------------|

CHORUS

BRIDGE
Guitar 2
 |       |       |       |        |       |       |       |        
|--------------------------------|--------------------------------|
|--------------------------------|--------------------------------|
|--------------------------------|--------------------------------|
|--------------------------------|--------------------------------|
|----------------15\-------------|3-----------7---8-------7-------|
|--------------------------------|--------------------------------|
 
 |       |       |       |        |       |       |       |        
|--------------------------------|--------------------------------|
|--------------------------------|--------------------------------|
|--------------------------------|--------------------------------|
|--------------------------------|--------------------------------|
|10----------7---8-------7\------|3-----------7---8-------7-------|
|--------------------------------|--------------------------------|
 
 |       |       |       |       
|--------------------------------|
|--------------------------------|
|--------------------------------|
|--------------------------------|
|10----------7---8-------7\------|
|--------------------------------|

OUTRO VERSE
Guitar 1
 |       |       |       |        |       |       |       |        
|----8-------8-------5-------5---|----7-------7-------5-------5---|
|----8-------8-------6-------6---|----8-------8-------6-------6---|
|----9-------9-------5-------5---|----7-------7-------5-------5---|  x5
|--------------------------------|--------------------------------| 
|--------------------------------|--------------------------------|
|--------------------------------|--------------------------------|

 |       |       |       |        |       |       |       |           
|----8-------8-------5-------5/--|----7---------------------------| 
|----8-------8-------6-------6/--|----8---------------------------|
|----9-------9-------5-------5/--|----7---------------------------|
|--------------------------------|--------------------------------|
|--------------------------------|--------------------------------|
|--------------------------------|--------------------------------|

Guitar 2
 |       |       |       |        |       |       |       |        
|--------------------------------|--------------------------------|
|--------------------------------|--------------------------------|
|--------------------------------|--------------------------------|
|--------------------------------|--------------------------------| x6
|3-----------7---8-------7-------|10----------7---8--------7\-----|
|--------------------------------|--------------------------------|

Guitar 1
 |       |       |       |        |       |       |       |        
|----8-------8-------5-------5---|----7-------7-------5-------5---|
|----8-------8-------6-------6---|----8-------8-------6-------6---|
|----9-------9-------5-------5---|----7-------7-------5-------5---|  x7
|--------------------------------|--------------------------------| 
|--------------------------------|--------------------------------|
|--------------------------------|--------------------------------|


 |       |       |       |        |       |       |       |           
|----8-------8-------5-------5/--|----7---------------------------| 
|----8-------8-------6-------6/--|----8---------------------------|
|----9-------9-------5-------5/--|----7---------------------------|
|--------------------------------|--------------------------------|
|--------------------------------|--------------------------------|
|--------------------------------|--------------------------------|


 |       |       |       |        |       |       |       |        
|----8-------8-------5-------5---|----7-------7-------5-------5---|
|----8-------8-------6-------6---|----8-------8-------6-------6---|
|----9-------9-------5-------5---|----7-------7-------5-------5---|  x7
|--------------------------------|--------------------------------| 
|--------------------------------|--------------------------------|
|--------------------------------|--------------------------------|



OUTRO
Guitar 1
 |       |       |       |        |       |       |       |        
|----8-------8-------5-------5---|----7-------7-------5-------5---|
|----8-------8-------6-------6---|----8-------8-------6-------6---|
|----9-------9-------5-------5---|----7-------7-------5-------5---|  
|--------------------------------|--------------------------------| 
|--------------------------------|--------------------------------|
|--------------------------------|--------------------------------| 
 |       |       |       |        |       |       |       |           
|----8-------8-------5-------5/--|----7---------------------------| 
|----8-------8-------6-------6/--|----8---------------------------|
|----9-------9-------5-------5/--|----7---------------------------|
|--------------------------------|--------------------------------|
|--------------------------------|--------------------------------|
|--------------------------------|--------------------------------|
Guitar 2
 |       |       |       |        |       |       |       |        
|--------------------------------|--------------------------------|
|--------------------------------|--------------------------------|
|--------------------------------|--------------------------------|
|--------------------------------|--------------------------------|
|------------------------7\------|3-----------7---8-------7-------|
|--------------------------------|--------------------------------|
 
 |       |       |       |        |       |       |       |        
|--------------------------------|--------------------------------|
|--------------------------------|--------------------------------|
|--------------------------------|--------------------------------|
|--------------------------------|--------------------------------|
|10----------7---8-------7\------|3-----------7---8-------7-------|
|--------------------------------|--------------------------------|
 
 |       |       |       |       
|--------------------------------|
|--------------------------------|
|--------------------------------|
|--------------------------------|
|10------------------------------|
|--------------------------------|

awesome song by the vaginals. i was pissed that i couldn't go see them at their last
ever gig so i sat in front of the computer with my guitar and tabbed out their song.
should be almost all correct, got any issues? then go jump off a cliff, or email any
corrections/hatemail to extremist_makeover@hotmail.com
RIP vaginals

            
            
Suggest correction
Creating personal tab
Creating personal tab
You can edit any tab online and save it as your Personal.

You can edit, replace or remove any tab part or add personal notes – all changes will be seen only by you.

Personal tabs can be accessed anytime from any device, even offline.
Learn more »
Give kudos to tab author, rate the tab!
1 2 3 4 5
comments
print report bad tab
guest
You may want to rate the tab now too:
select rating
Wanna post a correction for this tab? Suggest correction