Oops, an error
Loading. Please wait.

The Virgin - Cinta Terlarang Tab

6,522 views 6 this week
no commentswrite comment
1 2 3 4 5
please rate
add to favorites
launch autoscroll
font size
0
reset
how to read this tab
guitar tuner
Autoscroll
slow
fast
+/-
esc
set tempo
stop
Help us to improve Ultimate-Guitar.com Take our survey!
×
Author
Difficulty
novice
THE VIRGIN - CINTA TERLARANG

Tabbed by eyenight

Masih pemula nih, masih coba2...

INTRO

e|-7---7---7---7---7---7---7---7---6---6---6---6---7---7---7---7-------------|
B|-7-7---7---7---7-5-5---5---5---5-7-7---7---7---7-5-5---5---5---5-----------|
G|---------------------------------------------------------------------------|
D|---------------------------------------------------------------------------|
A|---------------------------------------------------------------------------|
E|---------------------------------------------------------------------------|

e|-7---7---7---7---4---4---4---4---------------------------------------------|
B|-7-7---7---7---7-5-5---5---5-----------------------------------------------|
G|---------------------------------------------------------------------------|
D|---------------------------------6-8-9---9--8---9-8-6---6------------------|
A|------------------------------------------------------9--------------------|
E|---------------------------------------------------------------------------|



C#m F#
Kau kan slalu tersimpan di hatiku
B
Meski ragamu tak dapat kumiliki
C#m F#
Jiwaku kan slalu bersamamu
B
Meski kau tercipta bukan untukku



CHORUS

E F#
Tuhan berikan aku hidup
D#m G# 
Satu kali lagi hanya untuk bersamanya
C#m F#
Ku mencintainya 
B B7
Sungguh mencintainya

E F#
Rasa ini sungguh tak wajar
D#m G# 
Namun ku ingin tetap bersama dia
C#m Em          B
Untuk selamanya



C#m F#
Mengapa cinta ini terlarang
B
Saat kuyakini kaulah milikku
C#m F#
Mengapa cinta kita tak bisa bersatu
B
Saat kuyakin tak ada cinta selain dirimu



BRIDGE

e|---------------------------------------------------------------------------|
B|---------------------------------------------------------------------------|
G|---------------------------------------------------------------------------|
D|---13-11-9-13-9/11--------9-------11-9----11-9-------9----11/13------------|
A|-9--------------------11----13---------13---------11---11------------------|
E|---------------------------------------------------------------------------|

e|---------------------------------------------------------------------------|
B|---------------------------------------------------------------------------|
G|-------------------------------------------------------------------11------|
D|-13-11-9-13-9/11----------9-------------9-11-11/14-13-11--9-11-9-13----13--|
A|----------------------11----13----13-13------------------------------------|
E|---------------------------------------------------------------------------|

e|---------------------------------------------------------------------------|
B|----------------12---------------------------------------------------------|
G|-------------13----13------------------------------------------------------|
D|------8-9-11---------------------------------------------------------------|
A|-9-11----------------------------------------------------------------------|
E|---------------------------------------------------------------------------|
Suggest correction
Give kudos to tab author, rate the tab!
1 2 3 4 5
comments
print report bad tab
guest
You may want to rate the tab now too:
select rating
Please do not post tabs as comments. Select "correction" instead!