Oops, an error
Loading. Please wait.

Thee Armada - Rock Shock Load Tab

1,743 views 1 this week
1 commentread comment
1 2 3 4 5
excellent!
x 3
add to favorites
launch autoscroll
font size
0
reset
how to read this tab
guitar tuner
Tab Pro tools
  • play this tab
  • loop segment
  • change instrument
  • show fretboard
  • metronome
Autoscroll
slow
fast
+/-
esc
set tempo
stop
Contributor
Difficulty
Tuning
novice
D A D G B E
----------------------------------------------------------------------------
                             Rock, Shock & Load! - Thee Armada
----------------------------------------------------------------------------
Tabbed by: BrandonR
Email:branodnr116@hotmail.com

Tuning:Drop D

Great band. I hope to see them live one day. This is their single out right now.
check out the band and the song at
http://www.myspace.com/theearmadamusic

The only problem my be the guitar one parts in some areas.. if you see anything that 
to be changed let me know by email or comment. Other then that, this should be all correct 
the most part. Make sure you listen to the song for the rythem.


:00-:11
guitar 1
e|-------------------------------------------------------------------------|
B|-------------------------------------------------------------------------|
G|-------------------------------------------------------------------------|
D|-1~-------1-1----\-------------------------------------------------------|
A|-1~-------1-1----\-pick-slide--------------------------------------------|
D|-1~-------1-1----\-------------------------------------------------------|
guitar 2
e|-------------------------------------------------------------------------|
B|-------------------------------------------------------------------------|
G|-------------------------------------------------------------------------|
D|-1~-------1-1----3~------------------------------------------------------|
A|-1~-------1-1----3~------------------------------------------------------|
D|-1~-------1-1----3~------------------------------------------------------|

:12-:18
guitar 1
e|-------------------------------------------------------------------------|
B|----------------------9p8------------------------------------------------|
G|-8h10-8h10-8h12-8h12-----10p8---x2---------------------------------------|
D|-------------------------------------------------------------------------|
A|-------------------------------------------------------------------------|
D|-------------------------------------------------------------------------|
guitar 3
e|-------------------------------------------------------------------------|
B|-comes-in-after-------9-11---11---11---11--11/13-9/8---------------------|
G|---guitar-1-plays----8-----8----8----8-----------------------------------|
D|----rift-once------------------------------------------------------------|
A|-------------------------------------------------------------------------|
D|-------------------------------------------------------------------------|
guitar 2
e|-------------------------------------------------------------------------|
B|--------follow-rythem----------------------------------------------------|
G|-------------------------------------------------------------------------|
D|-1-1-1--1-1--1-1--6-6-6--6-6--6-6----------------------------------------|
A|-1-1-1--1-1--1-1--6-6-6--6-6--6-6----------------------------------------|
D|-1-1-1--1-1--1-1--6-6-6--6-6--6-6----------------------------------------|

:19-:30
guitar 1
e|-------------------------------------------------------------------------|
B|-------------------------------------------------------------------------|
G|-12-12-12-12/13\12-12-12--8-----12-12-12-12/13\12-12 12--8---------------|
D|--x--x--x--x--x--x--x--x--x-x8---x--x--x--x--x--x--x--x--x-x8------------|
A|-10-10-10-10/11\10-10-10--6-----10-10-10-10/11\10-10-10--6---------------|
D|-------------------------------------------------------------------------|
guitar 2
e|-------------------------------------------------------------------------|
B|--------follow-rythem----------------------------------------------------|
G|-------------------------------------------------------------------------|
D|-1-1-1--1-1--1-1--6-6-6--6-6--6-6----x2----------------------------------|
A|-1-1-1--1-1--1-1--6-6-6--6-6--6-6----------------------------------------|
D|-1-1-1--1-1--1-1--6-6-6--6-6--6-6----------------------------------------|

:31-:35
guitar 1
e|-------------------------------------------------------------------------|
B|-------------------------------------------------------------------------|
G|-10-----7~--8~--10-------ROCK--------------------------------------------|
D|--x-x16-x---x----x------------SHOCK--------------------------------------|
A|--8-----5~--6~---8------------------&------------------------------------|
D|--------------------------------------LOAD!------------------------------|
guitar 2
e|-------------------------------------------------------------------------|
B|-------------------------------------------------------------------------|
G|----------------------------------ROCK-----------------------------------|
D|-3-3-3-3-------------------------------SHOCK-----------------------------|
A|-3-3-3-3-g1-plays-the-build-up---------------&---------------------------|
D|-3-3-3-3---------------------------------------LOAD!---------------------|

:36-:47
Both guitars
e|-------------------------------------------------------------------------|
B|-------------------------------------------------------------------------|
G|-------------------------------------------------------------------------|
D|-6-6-66-6-6-6---1----6-6-66-6-6-6-------3----1---------------------------|
A|-6-6-66-6-6-6---1-X8-6-6-66-6-6-6--HEY!-3-x4-1-x4------------------------|
D|-6-6-66-6-6-6---1----6-6-66-6-6-6-------3----1---------------------------|

:48-1:00
both guitars
e|-------------------------------------------------------------------------|
B|-------------------------------------------------------------------------|
G|-------------------------------------------------------------------------|
D|-6-6-66-6-6-6---1----6-6-66-6-6-6-------3----5----6----8-----------------|
A|-6-6-66-6-6-6---1-X8-6-6-66-6-6-6--HEY!-3-x2-5-x2-6-x2-8-x2--------------|
D|-6-6-66-6-6-6---1----6-6-66-6-6-6-------3----5----6----8-----------------|

1:01-1:11
guitar 1
e|-------------------------------------------------------------------------|
B|--------------------------9p8--------------------------------------------|
G|-8h10-8h10-8h12-8h12-8h12----10p8--x4------------------------------------|
D|-------------------------------------------------------------------------|
A|-------------------------------------------------------------------------|
D|-------------------------------------------------------------------------|
guitar 3
e|-------------------------------------------------------------------------|
B|-comes-in-after----9-11---11---11---11--11/13-9/8------------------------|
G|--guitar-1-plays--8-----8----8----8--------------------------------------|
D|---rift-twice------------------------------------------------------------|
A|-------------------------------------------------------------------------|
D|-------------------------------------------------------------------------|
guitar 2
e|-------------------------------------------------------------------------|
B|--------follow-rythem----------------------------------------------------|
G|-------------------------------------------------------------------------|
D|-1-1-1--1-1--1-1--6-6-6--6-6--6-6---x2-----------------------------------|
A|-1-1-1--1-1--1-1--6-6-6--6-6--6-6----------------------------------------|
D|-1-1-1--1-1--1-1--6-6-6--6-6--6-6----------------------------------------|

1:12-1:24
guitar 1
e|-------------------------------------------------------------------------|
B|---------------------9p8-------------------------------------------------|
G|-8h10-8h10-8h12-8h12----10p8---x4----------------------------------------|
D|-------------------------------------------------------------------------|
A|-------------------------------------------------------------------------|
D|-------------------------------------------------------------------------|
guitar 2
e|-------------------------------------------------------------------------|
B|-follow-rythem-cut-time(two-times-faster)--------------------------------|
G|-------------------------------------------------------------------------|
D|-1-1-1--1-1--1-1--6-6-6--6-6--6-6----x2----------------------------------|
A|-1-1-1--1-1--1-1--6-6-6--6-6--6-6----------------------------------------|
D|-1-1-1--1-1--1-1--6-6-6--6-6--6-6----------------------------------------|

1:25-1:26
guitar 1
e|-------------------------------------------------------------------------|
B|-------------------------------------------------------------------------|
G|------10/-slide-down---"we-get-down--------------------------------------|
D|------------------------------------until-the-sun.."---------------------|
A|-------------------------------------------------------------------------|
D|-------------------------------------------------------------------------|
guitar 2
e|-------------------------------------------------------------------------|
B|-------------------------------------------------------------------------|
G|----------"we-get-down---------------------------------------------------|
D|-8-8-8-----------------until-the-sun.."----------------------------------|
A|-8-8-8-------------------------------------------------------------------|
D|-8-8-8-------------------------------------------------------------------|

1:26-1:35
both guitars
e|-------------------------------------------------------------------------|
B|-"comes-up.."------------------------------------------------------------|
G|---------------------------ROCK------------------------------------------|
D|-6----3-------------8-----------SHOCK------------------------------------|
A|-6-x8-3-x-4--pause--8-x4--------------&----------------------------------|
D|-6----3-------------8-------------------LOAD!----------------------------|

1:36-1:48
both guitars
e|-------------------------------------------------------------------------|
B|-------------------------------------------------------------------------|
G|-------------------------------------------------------------------------|
D|-6-6~-------1-1~-------3-----5-----6-----8-------------------------------|
A|-6-6~-pause-1-1~-pause-3-x2--5-x2--6-x2--8-x4----------------------------|
D|-6-6~-------1-1~-------3-----5-----6-----8-------------------------------|

1:49-2:00
Both guitars
e|-------------------------------------------------------------------------|
B|-------------------------------------------------------------------------|
G|-------------------------------------------------------------------------|
D|-6-6-66-6-6-6---1----6-6-66-6-6-6-------3----1---------------------------|
A|-6-6-66-6-6-6---1-X8-6-6-66-6-6-6--HEY!-3-x4-1-x4------------------------|
D|-6-6-66-6-6-6---1----6-6-66-6-6-6-------3----1---------------------------|

2:01-2:18
both guitars
e|--------------------------------------|----------------------|-play------|
B|--------------------------------------|-listen-to-the-rythem-|--fourth---|
G|--------------------------------------|----------------------|-----time--|
D|-6-6-66-6-6-6--1----6-6-66-6-6-6------|--10-----8-----6----x3|-10----8---|
A|-6-6-66-6-6-6--1-X8-6-6-66-6-6-6-HEY!-|--10-x2--8-x2--6-x4---|-10-x2-8-x2|
D|-6-6-66-6-6-6--1----6-6-66-6-6-6------|--10-----8-----6------|-10----8---|

2:19-2:31
both guitars
e|-------------------------------------------------------------------------|
B|------------------listen-for-a-small-------------------------------------|
G|--------------------break-in-the-----------------------------------------|
D|-1-----3-----5-----6--rythem-6----8--------------------------------------|
A|-1-x2--3-x2--5-x2--6-x4--^---6-x4-8-x4-----------------------------------|
D|-1-----3-----5-----6---------6----8--------------------------------------|

2:32-2:34
guitar 1
e|----------------|--------|-----------------------------------------------|
B|-follow-rythem--|-end on-|-----------------------------------------------|
G|-8-8-8-8-888-8--|--8-----|-----------------------------------------------|
D|-x-x-x-x-xxx-x--|--x-----|-----------------------------------------------|
A|-6-6-6-6-666-6--|--6-----|-----------------------------------------------|
D|----------------|--------|-----------------------------------------------|

song ends at 2:37

============================================================================
comments
We did not receive enough feedback on this tab! Please rate:
print report bad tab
1 2 3 4 5
1 comment total.
0 reply
TheHoxtonHeroes wrote on July 24 2008, 11:30 am

amazing tab. thank you so much for tabbing this. I love Thee Armada and was happy to find any tab for Rock, Shock, & Load much less a perfect one. 5 stars.

I want to post or [tab]
guest
You may want to rate the tab now too:
select rating
Please do not post tabs as comments. Select "correction" instead!