Oops, an error
Loading. Please wait.

Them Terribles - Tangerine Tab

324 views 1 this week
no commentswrite comment
1 2 3 4 5
excellent!
x 1
add to favorites
launch autoscroll
font size
0
reset
how to read this tab
guitar tuner
Tab Pro tools
  • play this tab
  • loop segment
  • change instrument
  • show fretboard
  • metronome
Autoscroll
slow
fast
+/-
esc
set tempo
stop
Contributor
Difficulty
novice
e|-------------------------------------------------------------|
B|-------------------------------------------------------------|
G|-------------------------------------------------------------|
D|--------------7-7-------9-9---/-11-11--------7-7-------9-9---| 3 Times
A|--4-4---7-7---5-5---7---7-7---/--9--9--7-7---5-5---7---7-7---|
E|--2-2---5-5---------5---------/--------5-5---------5---------|

                              8xs 8xs
e|---------------------------|---|---|
B|---------------------------|---|---|
G|---------------------------|---|---|
D|-------------7-7-------9-9-|-5-|-7-|
A|-4-4---7-7---5-5---7---7-7-|-7-|-9-|
E|-2-2---5-5---------5-------|---|---|
                          

                       those are power chords not 8 ones
                             |||
                             vvv
e|--------------------------------------------------|-----------------------|
B|--------------------------------------------------|-----------------------|
G|--------------------------------------------------|-----------------------|
D|------------777-----99-11111111------7777------99-|------------777-----99-|
A|--4444-7777-555-777-77-9-9-9-9--7777-5555-7777-77-|--4444-7777-555-777-77-|
E|--2222-5555-----555-------------5555------5555----|--2222-5555-----555----|


  8xs 8xs
e|---|---|
B|---|---|
G|---|---|
D|-7-|-9-|
A|-5-|-7-|
E|---|---|


e|---|
B|---|
G|---|
D|---| 64xs
A|-9-|
E|---|

e|-------------------------------------------------------------|
B|-------------------------------------------------------------|
G|-------------------------------------------------------------|
D|--------------7-7-------9-9---/-11-11--------7-7-------9-9---|
A|--4-4---7-7---5-5---7---7-7---/--9--9--7-7---5-5---7---7-7---|
E|--2-2---5-5---------5------------------5-5---------5---------|

                              8xs 8xs
e|---------------------------|---|---|
B|---------------------------|---|---|
G|---------------------------|---|---|
D|-------------7-7-------9-9-|-5-|-7-|
A|-4-4---7-7---5-5---7---7-7-|-7-|-9-|
E|-2-2---5-5---------5-------|---|---|


e|-------------------------------------------------|----------------------|
B|-------------------------------------------------|----------------------|
G|-------------------------------------------------|----------------------|
D|------------777-----99-11111111------777------99-|-----------777-----99-|
A|--4444-7777-555-777-77-9-9-9-9--7777-555-777--77-|-4444-7777-555-777-77-|
E|--2222-5555-----555-------------5555-----555-----|-2222-5555-----555----|

  8xs 8xs
e|---|---|
B|---|---|
G|---|---|
D|-7-|-9-|
A|-5-|-7-|
E|---|---|
                         (Lightly Strum 8xs)
e|-----|----|------------|     |---|
B|-----|----|------------|     |---|
G|-----|----|------------|     |---|
D|-11~-|-9~-|-11~~~~~~\9-|     |-9-|
A|--9~-|-7~-|--9~~~~~~\7-|     |-7-|
E|-----|----|------------|     |---|
               ________        ________
              |1, 3 Ending    |2 ending
e|------------|---------------|----------------------|------------|
B|------------|---------------|----------------------|------------|
G|o-7777-9999-|--------------o|---------------------o|------------|
D|o-5555-7777-|--------------o|--11-11----11-11-11--o|--7777-9999-|
A|------------|--4444--7777---|--9--9-----9--9--9----|--5555-7777-|
E|------------|--2222--5555---|----------------------|------------|

e|-------------|           
B|-------------|
G|-------------|
D|----------79-| 4 Times 
A|--24--79--57-|
E|--02--57-----|

e|------------|
B|------------|
G|------------|
D|--9999-9999-|
A|--7777-7777-|
E|------------|


                     REPEAT THIS UNTIL END
e|-------------------------------------------------|----------------------|
B|-------------------------------------------------|----------------------|
G|-------------------------------------------------|----------------------|
D|------------777-----99-11111111------777------99-|-----------777-----99-|
A|--4444-7777-555-777-77-9-9-9-9--7777-555-777--77-|-4444-7777-555-777-77-|
E|--2222-5555-----555-------------5555-----555-----|-2222-5555-----555----|

  Strike this on last note
e|-----|
B|-----|
G|-----|
D|--4~~|
A|--4~~|
E|--2~~|

Myspace.com/themterribles - official website
comments
We did not receive enough feedback on this tab! Please rate:
print report bad tab
1 2 3 4 5
I want to post or [tab]
guest
You may want to rate the tab now too:
select rating
Please do not post tabs as comments. Select "correction" instead!