Oops, an error
Loading. Please wait.

Then Falls Caesar - Goliath Tab

257 views 1 this week
no commentswrite comment
1 2 3 4 5
excellent!
x 1
add to favorites
launch autoscroll
font size
0
reset
how to read this tab
guitar tuner
Tab Pro tools
  • play this tab
  • loop segment
  • change instrument
  • show fretboard
  • metronome
Autoscroll
slow
fast
+/-
esc
set tempo
stop
Contributor
Tuning: Drop C (CGCFAD)
Artist: Then Falls Caesar
Song: Goliath
Tabbed By: Sean O. (www.breakbeforedawn.com)

---
Key
---
h   Hammer-On
.   Palm Mute
(X) Pinch Harmonic
p   Pull-Off
X   Dead Note
Q   Quarter Note
W   Whole Note

Riff 1 (00:02):

*Play each powerchord for 2 measures (As 8th notes around 200BPM)
*Guitar 1 plays this for 4 repetitions.

|---------|
|---------|
|7-10-7-10|
|7-10-5-8-|
|5-8--5-8-|
|-----5-8-|

*The timing for this part is really easy and would make more sense to figure out than it
to try and explain it.
*Guitar 2 plays this once through.

|-------------------------|
|-------------------------|
|7-10-7-9-10-14-17-7-9-10-|
|x-x--x-x-x--x--x--x-x-x--|
|5-8--5-7-8--12-15-5-7-8--|
|-------------------------|

|13-12----13p12-13p12----15-13-12-13p12-----------------|
|------13-------------13----------------13-10-13-15-----|
|-------------------------------------------------------|
|-------------------------------------------------------|
|-------------------------------------------------------|
|-------------------------------------------------------|

|13-12----13p12-13p12----15-13-12-13p12----20-18-17-18-17-15-13-12-13|
|------13-------------13----------------13---------------------------|
|--------------------------------------------------------------------|
|--------------------------------------------------------------------|
|--------------------------------------------------------------------|
|--------------------------------------------------------------------|

Riff 2 (00:45):

*Very simple and easy. Just hit this when it comes up and let it ring out. Swell the
down, and go into Riff 3. Both Guitars play this.

|--|
|--|
|7-|
|7-|
|5-|
|--|

Riff 3 (00:54):

*Both Guitars play this twice.

|---------------------------------------------------------------------------|
|---------------------------------------------------------------------------|
|--7---7---7---7----10---10---10---10---------------------------------------|
|--7---7---7---7----10---10---10---10---------------------------------------|
|555-555-555-555--888--888--888--888----5----5----5----5----8----8----8----8|
|-------------------------------------555--555--555--555--888--888--888--888|
 ..  ..  ..  ..   ..   ..   ..   ..   ..   ..   ..   ..   ..   ..   ..   ..

Riff 4 (01:11):

*This is almost exactly like Riff 1. The only difference is what Guitar 2 does, so
1 plays the same thing.

|-------------------------|
|-------------------------|
|7-10-7-10-14-17-7--10----|
|x-x--x-x--x--x--x--x-----|
|5-8--5-8--12-15-5--8-----|
|-------------------------|

|13-12----13p12-13p12----15-13-12-13p12--------------------|
|------13-------------13----------------13-10-13-13-15-----|
|----------------------------------------------------------|
|----------------------------------------------------------|
|----------------------------------------------------------|
|----------------------------------------------------------|

|13-12----13p12-13p12----15-13-12-13p12----20-18-17-18-17-15-13-12-13|
|------13-------------13----------------13---------------------------|
|--------------------------------------------------------------------|
|--------------------------------------------------------------------|
|--------------------------------------------------------------------|
|--------------------------------------------------------------------|

Riff 5 (01:46):

*Both Guitars play this.

|---------------|
|---------------|
|---------------|
|---------------|
|5h8-5h8-4h7-4h7|
|---------------|


|---------|           |----|
|---------|           |----|
|---------|           |----|
|---------| x 4, then |----|
|0-0-0-000|           |(12)|
|0-0-0-000|           |----|
 . . . ...

|---------|
|---------|
|---------|
|0-0-0-000| x 8. On the 5th repetition, strum harder and slow down a bit.
|0-0-0-000|
|0-0-0-000|
 . . . ..

Riff 6 (02:28):

*Guitar 1 plays this.
*This riff is right after the drum fill.
*The amount you play each powerchord isn't correct, but it made more sense to notate it
a rough estimation.
*This riff is played 4 times. On the third time, do not play the dead notes. There's a 
there instead.

|---------------------------------------|
|---------------------------------------|
|7777777777-1010101010-77777777777------|
|7777777777-1010101010-55555555555------|
|5555555555-8-8-8-8-8--55555555555-XX-XX|
|----------------------55555555555-XX-XX|

Riff 7 (03:03):

*Guitar 1 plays this 1 time, then plays the second part. Let the last powerchord ring out.

|---------|
|---------|
|7-10-7-10|
|7-10-5-8-|
|5-8--5-8-|
|-----5-8-|
                                                                  Q Q W
|----------------------------------------------------------------------|
|----------------------------------------------------------------------|
|7-7-7-7-7-7-7-7--10-10-10-10-10-10-10-10-7-7-7-7-7-7-7-7-----------4-5|
|7-7-7-7-7-7-7-7--10-10-10-10-10-10-10-10-5-5-5-5-5-5-5-5-8-8-8-8-8-2-3|
|5-5-5-5-5-5-5-5--8--8--8--8--8--8--8--8--5-5-5-5-5-5-5-5-8-8-8-8-8-2-3|
|-----------------------------------------5-5-5-5-5-5-5-5-8-8-8-8-8-2-3|


*Guitar 2 plays this. Let the last note ring out.

|13-12----13p12-13p12----15-13-12-13p12------------------|
|------13-------------13----------------13-10-13-15------|
|--------------------------------------------------------|
|--------------------------------------------------------|
|--------------------------------------------------------|
|--------------------------------------------------------|

|20-18-17-18-17-15-13-12|           |13-15-20-18-17-15-13-12-13|
|-----------------------|           |--------------------------|
|-----------------------|           |--------------------------|
|-----------------------| x 3, then |--------------------------|
|-----------------------|           |--------------------------|
|-----------------------|           |--------------------------|
comments
We did not receive enough feedback on this tab! Please rate:
print report bad tab
1 2 3 4 5
I want to post or [tab]
guest
You may want to rate the tab now too:
select rating
Please do not post tabs as comments. Select "correction" instead!