Oops, an error
Loading. Please wait.

These Hearts - Shed Like To Wear The Pants But She Cant Fit Into Mine Tab

2,002 views 3 this week
3 commentsread comments
1 2 3 4 5
accurate
x 5
add to favorites
launch autoscroll
font size
0
reset
how to read this tab
guitar tuner
Tab Pro tools
  • play this tab
  • loop segment
  • change instrument
  • show fretboard
  • metronome
Autoscroll
slow
fast
+/-
esc
set tempo
stop
Contributor
Difficulty
intermediate
This is simplified but it all sounds good
mainly the rhythm riffs

Intro
E:|------------------------|
B:|------------------------|
G:|-7--------3-333---------|
D:|-7-3333---3-333---5555--|
A:|-5-3333---1-111---5555--|
E:|---1111-----------3333--| X2

E:|------------------------------------|
B:|------------------------------------|
G:|-7--------------------3-333---------|
D:|-7-3333--xx-5-3-2-3---3-333---5555--|
A:|-5-3333--xx-----------1-111---5555--|
E:|---1111--xx-------------------3333--|

E:|------------------------|
B:|------------------------|
G:|-7--------3-333---------|
D:|-7-3333---3-333---5555--|
A:|-5-3333---1-111---5555--|
E:|---1111-----------3333--|

Let it all die down....
E:|------------------------------------------------------|
B:|------------------------------------------------------|
G:|-7-77777--9--5-55555--9-101010101010---9-99999999999--|
D:|-x-xxxxx--x--x-xxxxx--x--x-x-x-x-x-x---9-xxxxxxxxxxx--|
A:|-5-55555--7--3-33333--7--8-8-8-8-8-8---7-77777777777--|
E:|------------------------------------------------------|

She Said What are you waiting for.....

Guitar 1                  PM
E:|--------------|     |-------|
B:|--------------|     |-------|
G:|-9--10101010--|     |-------|
D:|-9--10101010--|     |-5555--|
A:|-7---8-8-8-8--|     |-5555--|
E:|--------------| X4  |-3333--|
  
Guitar 2(this might be the bass line but it sounds good)
E:|------------------|
B:|------------------|
G:|-3-3333---5-7777--|
D:|-3-3333---5-7777--|
A:|-1-1111---3-5555--|
E:|------------------| X4

She Said What Are you Waiting For....
Guitar 1                             
(1st and 3rd riff only)        PM      
E:|-------------------------- |-------|
B:|-------------------------- |-------|
G:|-9--10101010---12-10-9-10- |-------|
D:|-9--10101010----x--x-x--x- |-5555--|
A:|-7---8-8-8-8---10--8-7--8- |-5555--|
E:|-------------------------- |-3333--|


Looking For A Sign....
     PM     PM      PM      PM
E:|--------------------------------------|
B:|--------------------------------------|
G:|-3333333333333333---5555555555555555--|
D:|-3333333333333333---5555555555555555--|
A:|-1111111111111111---3333333333333333--|
E:|--------------------------------------| X2


I know it might not look like much...
E:|--------------------------------------|
B:|--------------------------------------|
G:|-3333333333333333---5555555555555555--|
D:|-3333333333333333---5555555555555555--|
A:|-1111111111111111---3333333333333333--|
E:|--------------------------------------| X2

That im fine....
E:|----------------|
B:|----------------|
G:|-7--------------|
D:|-7--77--77--77--|
A:|-5--77--77--77--|
E:|----55--55--55--| X2

I dont think its too much to ask...
     PM     PM      PM      PM
E:|--------------------------------------|
B:|--------------------------------------|
G:|-3333333333333333---5555555555555555--|
D:|-3333333333333333---5555555555555555--|
A:|-1111111111111111---3333333333333333--|
E:|--------------------------------------| X2

When Your Old....
E:|--------------------------------------|
B:|--------------------------------------|
G:|-3333333333333333---5555555555555555--|
D:|-3333333333333333---5555555555555555--|
A:|-1111111111111111---3333333333333333--|
E:|--------------------------------------| X2

Your heart will never say...
E:|----------------|
B:|----------------|
G:|-7--------------|
D:|-7--77--77--77--|
A:|-5--77--77--77--|
E:|----55--55--55--| X4


Let it all die down....
E:|------------------------------------------------------|
B:|------------------------------------------------------|
G:|-7-77777--9--5-55555--9-101010101010---9-99999999999--|
D:|-x-xxxxx--x--x-xxxxx--x--x-x-x-x-x-x---9-xxxxxxxxxxx--|
A:|-5-55555--7--3-33333--7--8-8-8-8-8-8---7-77777777777--|
E:|------------------------------------------------------|

She Said What are you waiting for.....

Guitar 1                  PM
E:|--------------|     |-------|
B:|--------------|     |-------|
G:|-9--10101010--|     |-------|
D:|-9--10101010--|     |-5555--|
A:|-7---8-8-8-8--|     |-5555--|
E:|--------------| X4  |-3333--|
  
Guitar 2(bass line)
E:|------------------|
B:|------------------|
G:|-3-3333---5-7777--|
D:|-3-3333---5-7777--|
A:|-1-1111---3-5555--|
E:|------------------| X4

She Said What Are you Waiting For....
Guitar 1                             
(1st and 3rd riff only)          PM      
E:|--------------------------  |-------|
B:|--------------------------  |-------|
G:|-9--10101010---12-10-9-10-  |-------|
D:|-9--10101010----x--x-x--x-- |-5555--|
A:|-7---8-8-8-8---10--8-7--8-- |-5555--|
E:|--------------------------- |-3333--|

Bridge with keyboard part
E:|---------------------------|
B:|---------------------------|
G:|---------------------------|
D:|-9-1010101010101010101010--|
A:|-9--x-x-x-x-x-x-x-x-x-x-x--|
E:|-7--8-8-8-8-8-8-8-8-8-8-8--| X4


2nd Half of Bass solo
E:|-----------------------------------|
B:|-----------------------------------|
G:|------2----------------------------|
D:|--3-3---3-5-3-3-5-3-3-5-3-5-3-5-3--|
A:|-----------------------------------|
E:|-----------------------------------| X8

E:|--------------|
B:|--------------|
G:|---2-5-5-7-5--|
D:|-3------------|
A:|--------------|
E:|--------------|

Outro
E:|-------------------------------------|
B:|-------------------------------------|
G:|-777-----------------333-------------|
D:|-777-777-10-10-10----333--333-5-5-5--|
A:|-555-777-10-10-10----111--333-5-5-5--|
E:|-----555--8--8--8---------111-3-3-3--| X4

E:|------------------|
B:|------------------|
G:|-7---------3------|
D:|-7-7-------3-7-3--|
A:|-5-7-10----1-7-3--|
E:|---5--8------5-1--|

              PM  PM
E:|----------------------|
B:|----------------------|
G:|-7---------333--------|
D:|-7-7-------333-777-3--|
A:|-5-7-10----111-777-3--|
E:|---5--8--------555-1--|
comments
print report bad tab
3 comments total.
0 reply
Blinkboy2014 wrote on June 25 2011, 09:56 pm

E---6-8~----6-8-6-5h6p5-----------------------------------
B-6-------6------------------------------------------------
G---------------------------------------------------------
D----------------------------------------------------------
A-------------------------------------------------------
D--------------------------------------------------------

This is the lead verse behind the power chords on the a sharp and the c5.

This song is played in drop d...so it makes it heavier and changes up a few things. But this is a good tab(: goo jobs...And there is the epic riff before the outro that goes like this! *=harmonics

E-------------------------------------------
B------------------------------------------
G---2-0--0--0-0-0------------5*-----------5*------------
D-33-3-33-33-3-3-3--x2 then-----x2--then---5*-----
A-------------------------------------------
D--------------------------------------------
.. . .. .. . . .

( ^again but play harmonic first time)
play one more time (same part but dont do harmonic and end on this)

G-------5~-5h7p5------------------------------------------
D-3~-7~-------------------------------------------------

More of an addition because you didnt try to do these parts but they are cool and they have to be there(: Thanks for the good tab!

0 reply
Blinkboy2014 wrote on June 25 2011, 09:58 pm

Oh and they arentt all the lead parts but they are a start!

0 reply
xXWHIPxxLashXx wrote on December 4 2012, 04:44 pm

Hey dude, You're tab is almost spot on. I've spent all day fixing it, and I will be posting the revised version shortly. Don't worry, I'll be giving you all the credit for it.

Great job, bro.

I want to post or [tab]
guest
You may want to rate the tab now too:
select rating
Please do not post tabs as comments. Select "correction" instead!