Oops, an error
Loading. Please wait.

Thinking Fellers Union Local 282 - 23 Kings Crossing Tab

199 views 1 this week
no commentswrite comment
1 2 3 4 5
please rate
add to favorites
launch autoscroll
font size
0
reset
how to read this tab
guitar tuner
Autoscroll
slow
fast
+/-
esc
set tempo
stop
Help us to improve Ultimate-Guitar.com Take our survey!
×
Author
Thinking Fellers Union Local 282
23 Kings Crossing
From Funeral Pudding EP (1993) 




Ok guys... just the intro and one guitar from the verse melody.
E-mail to lucifernando@gmail.com


Intro


e|------------------------------------------------------------------|
B|------------------------------------------------------------------|
G|------------------------------------------------------------------|
D|------------------------------------------------------------------|
A|-6-6-5-5-4-4-------5-5-4-4-3-3-----4-4-3-3-2-2-----3-3-2-2-1-1----|
E|-------------4-----------------3---------------2---------------1--|


e|------------------------------------------------------------------|
B|------------------------------------------------------------------|
G|------------------------------------------------------------------|
D|------------------------------------------------------------------|
A|--2-2-1-1-0-0-----1------------1-----------1-----1----------------|
E|----------------------0-0----------0-0--------0------0------------|

                                                              4x

e|------------------------------------------------------------------|
B|------------------------------------------------------------------|
G|------------------------------------------------------------------|
D|---14----14----14----13-13/12-------------------------------------|
A|---12----12----12----11-11/10-------------------------------------|
E|------------------------------------------------------------------|




Verse Melody


 Sitting sissy cross-legged....

e|----------------|------------------|---------------|------------------|
B|----------------|------------------|---------------|------------------|
G|----------------|------------------|---------------|------------------|
D|----------------|------------------|---------------|------------------|
A|-7--7--7h9-9p7--|-------------9----|7--7--7h9-9p7--|------------------|
E|----------------|10--10--7-10---10-|---------------|10--10--7h10--7h10|


   Twenty three kings crossing...
e|----------------|------------------|---------------|------------------|
B|----------------|------------------|---------------|------------------|
G|----------------|------------------|---------------|------------------|
D|-6----6h7-7p6---|4------4-7p4------|6-----6h7-7p6--|4------4----------|
A|----------------|-----5------------|---------------|-----5---5--------|
E|----------------|------------------|---------------|-----------7------|
Suggest correction
Give kudos to tab author, rate the tab!
1 2 3 4 5
comments
print report bad tab
guest
You may want to rate the tab now too:
select rating
Please do not post tabs as comments. Select "correction" instead!