Oops, an error
Loading. Please wait.

Thinking Fellers Union Local 282 - Noble Experiment Tab

527 views 3 this week
no commentswrite comment
1 2 3 4 5
please rate
add to favorites
launch autoscroll
font size
0
reset
how to read this tab
guitar tuner
Tab Pro tools
  • play this tab
  • loop segment
  • change instrument
  • show fretboard
  • metronome
Autoscroll
slow
fast
+/-
esc
set tempo
stop
Contributor
Difficulty
novice
Thinking Fellers Union Local 282
Noble Experiment
From Strangers From The Universe(1994) 

INTRO

   G                        5x

E-------------------------------|
B---------------0-------0-------|
G-------0-----------------------|
D---------------0-------0-------|
A-------------------------------|
E-------3-----------------------|




VERSE


If the  sad   -  ness   of      li -  fe  ma - kes you  

   G

E----------------------------------------------------------------|
B---------------0-------0---------------0-------0----------------|
G----------------------------------------------------------------|
D---------------0-------0---------------0-------0----------------|
A----------------------------------------------------------------|
E-------3------------------------3-------------------------------|


        ti -   re  -    d .            And      the   

   C

E---------------0-------0---------------0-------0----------------|
B----------------------------------------------------------------|
G---------------0-------0---------------0-------0----------------|
D----------------------------------------------------------------|
A-------3------------------------3-------------------------------|
E----------------------------------------------------------------|

        fai  -  lures   of       man     ma - ke  you   

  Am/F#

E----------------------------------------------------------------|
B---------------1-------1---------------1-------1----------------|
G---------------2-------2---------------2-------2----------------|
D----------------------------------------------------------------|
A----------------------------------------------------------------|
E-------2------------------------2-------------------------------|



        sigh .      

   G

E----------------------------------------------------------------|
B---------------0-------0---------------0-------0----------------|
G----------------------------------------------------------------|
D---------------0-------0---------------0-------0----------------|
A----------------------------------------------------------------|
E-------3------------------------3-------------------------------|



            .....

CHORUS


 . . .  win  -  ds up   and      calls   it      a  

  Am

E----------------------------------------------------------------|
B---------------1-------1---------------1-------1----------------|
G---------------2-------2---------------2-------2----------------|
D----------------------------------------------------------------|
A-------0------------------------0-------------------------------|
E----------------------------------------------------------------|



        day .      

   G

E----------------------------------------------------------------|
B---------------0-------0---------------0-------0----------------|
G----------------------------------------------------------------|
D---------------0-------0---------------0-------0----------------|
A----------------------------------------------------------------|
E-------3------------------------3-------------------------------|



Enjoy!

Luiz
(lucifernando@gmail.com)
comments
We did not receive enough feedback on this tab! Please rate:
print report bad tab
1 2 3 4 5
I want to post or [tab]
guest
You may want to rate the tab now too:
select rating
Please do not post tabs as comments. Select "correction" instead!