Oops, an error
Loading. Please wait.

This Is Colour - Superhero Returns Tab

344 views 1 this week
no commentswrite comment
1 2 3 4 5
please rate
add to favorites
launch autoscroll
font size
0
reset
how to read this tab
guitar tuner
Autoscroll
slow
fast
+/-
esc
set tempo
stop
Help us to improve Ultimate-Guitar.com Take our survey!
×
Author
Tuning
C F A# D# G C
This is Colour - Superhero Returns

Intro:

Guitar 1 & 2

D------------------------------------------------------|
A------------------------------------------------------|
F------------------------------------------------------|
C-----------------------9-9-8-8-7-7-7-6-6-6-5----------|
G--9-9-9-8-8-8-7-7-7-6--7-7-6-6-5-5-5-4-4-4-3---0------|
C--9-9-9-8-8-8-7-7-7-6--------------------------0------|


Guitar 1 & 2 (2 begin later)

D------------------------------|
A------------------------------|
F------------------------------|
C------------------------------|      X4
G--5---8-5--8-5---8-6--8-6--8--|
C------------------------------|


D------------------------------|
A------------------------------|
F------------------------------|
C------------------------------|      X8
G--0---3-0--3-0---3-1--3-1--3--|
C--0---3-0--3-0---3-1--3-1--3--|
  P.M.-----------------------


Guitar 1

D--------------------------------------------|
A--------------------------------------------|
F--------------------------------------------|
C-------8----8----------8----8----8----8-----|      X2
G--7-10---10---10--7-10---10---10---10---10--|
C--------------------------------------------|

Guitar 2

D--------------------------------------------------|
A--------------------------------------------------|
F-------10----10----------10----10----10----10-----|
C--9-12----12----12--9-12----12----12----12----12--|
G--------------------------------------------------|
C--------------------------------------------------|



D-------------------------------------------------------------------|
A-------------------------------------------------------------------|
F-------------------------------------------------------------------|
C--------------------------------------------------7-----5----------|   X4
G--7---------------7-----5-----8---7---------------------------8----|
C----0-0-0-0-0-0-0---0-0---0-0---0---0-0-0-0-0-0-0---0-0---0-0---0--|
    P.M.----------  P.M.  P.M.  P.M.P.M.----------  P.M.  P.M.  P.M.


Guitar 1

  hold------- hold---------        hold--
D-------------------------------------------------------------------------|
A-------------------------------------------------------------------------|
F--13b14-------13b14b13-------------12---12-14--14b15---14b15---14b15b14--|
C-----------------------------12-14---------------------------------------|
G-------------------------------------------------------------------------|
C-------------------------------------------------------------------------|

D-------------------------------------------|
A--17-18-17-18-17-18-17-18-17-18-17-18-...--|
F-------------------------------------------|
C-------------------------------------------|
G-------------------------------------------|
C-------------------------------------------|

...

I'll write the end of the tab soon
Suggest correction
What's this?
You can suggest a correction to this tab. Community and Mods will review your correction and vote to approve or reject it.
comments
We did not receive enough feedback on this tab! Please rate:
print report bad tab
1 2 3 4 5
guest
You may want to rate the tab now too:
select rating
Please do not post tabs as comments. Select "correction" instead!