Oops, an error
Loading. Please wait.

This Is Virus - Something Worth Fighting For Tab

123 views 1 this week
no commentswrite comment
1 2 3 4 5
3 more votes to show rating
add to favorites
launch autoscroll
font size
0
reset
how to read this tab
guitar tuner
Autoscroll
slow
fast
+/-
esc
set tempo
stop
Help us to improve Ultimate-Guitar.com Take our survey!
×
Author
Hey guys, first song from This Is Virus' demo 2009, Check us out at youtube or 
Myspace /thisisvirus0709

Intro/Verse
X6                                                                    
e|-----------------------------------------------------------------------|
b|----------1----------------1---------------1---------------1--------0h1|
g|-----2------2---0-----0------0---0-----2-----2---0-------0-------------|
d|-------2------2---------2------2-----3---3-----3-------2---------2-----|
a|--0----------------2---------------------------------3---------2-------|
E|-----------------------------------------------------------------------|

Chorus Rhythm
X4
e|-0-0--0--0-0-0-0-0--0-0--0--0-0-0-0-0--0-0--0--0-0-0-0-0---0--0-0--0--0-0|
b|-1-1--1h 3-3-3-3-3--1-1--1h 3-3-3-3-3--1-1--1h 3-3-3-3-3---1--1-1--1--1-1|
g|-2-2--2--2-2-2-3-2--0-0--0--0-0-0-0-0--2-2--2--2-2-2-2-2---0--0-0--0--0-0|
d|-2-2--2--2-2-2-2-2--2-2--2--2-2-2-2-2--3-3--3--3-3-3-3-3---2--2-2--2--2-2|
a|-0-0--0--0-0-0-0-0--2-2--2--2-2-2-2-2--0-0--0--0-0-0-0-0---3--3-3--2--2-2|
E|-------------------------------------------------------------------------|

Chorus Lead
e|--------------------------------------------------------------------|
b|-5~~~~~~~-------5/6~~~~~~~----6\5~~~~~~~~-----5----------/8~~~------|
g|-------------------------------------------------/7~~~~-------------|
d|--------------------------------------------------------------------|
a|--------------------------------------------------------------------|
E|--------------------------------------------------------------------|

Fill
X2
e|------0-----0----------0-----0----------0-----0------------------------|
b|--------1-----1---1------1-----1---1------1-----1---1---------1-----0h1|
g|----------2-----2----------0-----0----------2-----2---------0----------|
d|--------------------------------------3-------------------2-------2----|
a|---0----------------2-----------------------------------3-------2------|
E|-----------------------------------------------------------------------|

Verse
X4
e|-----------------------------------------------------------------------|
b|----------1----------------1---------------1---------------1--------0h1|
g|-----2------2---0-----0------0---0-----2-----2---0-------0-------------|
d|-------2------2---------2------2-----3---3-----3-------2---------2-----|
a|--0----------------2---------------------------------3---------2-------|
E|-----------------------------------------------------------------------|

Chorus Rhythm
X4
e|-0-0--0--0-0-0-0-0--0-0--0--0-0-0-0-0--0-0--0--0-0-0-0-0---0--0-0--0--0-0|
b|-1-1--1h 3-3-3-3-3--1-1--1h 3-3-3-3-3--1-1--1h 3-3-3-3-3---1--1-1--1--1-1|
g|-2-2--2--2-2-2-3-2--0-0--0--0-0-0-0-0--2-2--2--2-2-2-2-2---0--0-0--0--0-0|
d|-2-2--2--2-2-2-2-2--2-2--2--2-2-2-2-2--3-3--3--3-3-3-3-3---2--2-2--2--2-2|
a|-0-0--0--0-0-0-0-0--2-2--2--2-2-2-2-2--0-0--0--0-0-0-0-0---3--3-3--2--2-2|
E|-------------------------------------------------------------------------|

Chorus Lead
e|--------------------------------------------------------------------|
b|-5~~~~~~~-------5/6~~~~~~~----6\5~~~~~~~~-----5----------/8~~~------|
g|-------------------------------------------------/7~~~~-------------|
d|--------------------------------------------------------------------|
a|--------------------------------------------------------------------|
E|--------------------------------------------------------------------|

Bridge
X2
e|-0-----0-0-0-0-----0-0-0----0-0-----------------------|
b|-1-----1-1-1-1-----1-1-1----1-1-----------------------|
g|-2-----2-2-2-0-----0-0-0----0-0-----------------------|
d|-3-----3-3-3-2-----2-2-2----2-2-----------------------|
a|-0-----0-0-0-3-----3-3-2----2-2-----------------------|
E|------------------------------------------------------|

e|-0-0-0-0---0-0---0-0-0-0---0-0-------0-----0--0-0-0---0-0-0-------------|
b|-1-1-1/3---3-3\\\1-1-1/3---3-3-------1-----1--1-1-1---1-1-1-------------|
g|-2-2-2/4---4-4\\\2-2-2/4---4-4-------2-----2--0-0-0---0-0-0-------------|
d|-3-3-3/5---5-5\\\3-3-3/5---5-5-------3-----3--2-2-2---2-2-2-------------|
a|----------------------------------------------3-3-3---2-2-2-------------|
E|------------------------------------------------------------------------|

Outro
X2
e|------------------------------------------------------------------------0|
b|----------1----------------1---------------1---------------1--------0h1-1|
g|-----2------2---0-----0------0---0-----2-----2---0-------0--------------2|
d|-------2------2---------2------2-----3---3-----3-------2---------2------2|
a|--0----------------2---------------------------------3---------2--------0|
E|-------------------------------------------------------------------------|

Suggest correction
Give kudos to tab author, rate the tab!
1 2 3 4 5
comments
print report bad tab
guest
You may want to rate the tab now too:
select rating
Wanna post a correction for this tab? Suggest correction