Oops, an error
Loading. Please wait.

Thomas Attwood - Sonatina No 2 In C Tab

version 1
version 1

Whole song

Interactive

106 views 1 this week
no commentswrite comment
1 2 3 4 5
please rate
add to favorites
launch autoscroll
font size
0
reset
how to read this tab
guitar tuner
Autoscroll
slow
fast
+/-
esc
set tempo
stop
Help us to improve Ultimate-Guitar.com Take our survey!
×
Contributor
Difficulty
benn913 877
intermediate
Tuning: Standard
Tabbed By: benn913 (Send me a message if you have any questions)
Thanks

E||--------------3--1--|--0-----0-----0-----1--0--|--------------------0-----|
B||--------------------|--------------------------|--3-----3-----3--------3--|
G||--------------------|-----0-----0-----0-----0--|-----0-----0-----0-----0--|
D||--------------------|--------2-----------2-----|--------3-----------3-----|
A||--------------------|--3-----------3-----------|--2-----------2-----------|
E||--------------------|--------------------------|--------------------------|


--------------0-----3-----|-----------0--------3--1--|
--1-----1-----------------|--3--1--3-----3-----------|
-----0-----0-----0-----0--|--------------------------|
--------2-----------2-----|-----0-----0-----0-----0--|
--3-----------3-----------|--------2-----------2-----|
--------------------------|--3-----------3-----------|


--0-----0-----0-----1--0--|--------------------0-----|
--------------------------|--3-----3-----3--------3--|
-----0-----0-----0-----0--|-----0-----0-----0-----0--|
--------2-----------2-----|--------3-----------3-----|
--3-----------3-----------|--2-----------2-----------|
--------------------------|--------------------------|


-----------------0--1--3--|--------------------||--3----------------|
--1-----1-----3-----------|--1-----------------||-------------------|
-----0-----0--------------|-------------------*||-------------------|
--------2-----------------|-------------------*||-------------------|
--3-----------------------|--------------------||-------------------|
--------------3-----------|--------------------||-------------------|


-----------------0--1--3--|-----------0--1--3--5--7--|
--------0--1--3-----------|-----1--3-----------------|
--0--2--------------------|--------------------------|
-----0-----0-----0-----0--|--------------------------|
--------2-----------2-----|-----3-----3-----3-----3--|
--1-----------1-----------|--0-----3-----0-----3-----|


--8--7--5--3--1--0--------|-----------0--------3-----|
--------------------3--1--|--3--1--3-----3-----------|
--------------------------|--------------------------|
--------------------------|-----0-----0-----0-----0--|
-----3-----3-----3-----3--|--------2-----------2-----|
--0-----3-----0-----3-----|--3-----------3-----------|


-----------------0--1--3--|--------0--1--3--5--7--8--|
--------0--1--3-----------|--1--3--------------------|
--0--2--------------------|--------------------------|
-----0-----0-----0-----0--|--------------------------|
--------2-----------2-----|-----3-----3-----3--------|
--1-----------1-----------|--0-----3-----0-----3--8--|


--5--3--1--0-----0--1--3--|--------0----------3--1--|--0-----0-----0-----1--0--|
--------------3-----------|--1-----------1----------|--------------------------|
--------------------------|-----0-----0-------------|-----0-----0-----0-----0--|
-----0-----0-----0-----0--|--------2----------------|--------2-----------2-----|
--------0-----------0-----|--3-----------3----------|--3-----------3-----------|
--1-----------1-----------|-------------------------|--------------------------|


--------------------0-----|--------------0-----3-----|
--3-----3-----3--------3--|--1-----1-----------------|
-----0-----0-----0-----0--|-----0-----0-----0-----0--|
--------3-----------3-----|--------2-----------2-----|
--2-----------2-----------|--3-----------3-----------|
--------------------------|--------------------------|


-----------0--------3--1--|--0-----0-----0-----1--0--|
--3--1--3-----3-----------|--------------------------|
--------------------------|-----0-----0-----0-----0--|
-----0-----0-----0-----0--|--------2-----------2-----|
--------2-----------2-----|--3-----------3-----------|
--3-----------3-----------|--------------------------|


--------------------0-----|-----------------0--1--3--|-------------------||
--3-----3-----3--------3--|--1-----1-----3-----------|--1----------------||
-----0-----0-----0-----0--|-----0-----0--------------|-------------------||
--------3-----------3-----|--------2-----------------|-------------------||
--2-----------2-----------|--3-----------------------|-------------------||
--------------------------|--------------3-----------|-------------------||


comments
We did not receive enough feedback on this tab! Please rate:
print report bad tab
1 2 3 4 5
I want to post or [tab]
guest
You may want to rate the tab now too:
select rating
Please do not post tabs as comments. Select "correction" instead!