Oops, an error
Loading. Please wait.

Thomas Holm - Selvmord Paa Dansegulvet Tab

891 views 1 this week
no commentswrite comment
1 2 3 4 5
3 more votes to show rating
add to favorites
launch autoscroll
font size
0
reset
how to read this tab
guitar tuner
Autoscroll
slow
fast
+/-
esc
set tempo
stop
Help us to improve Ultimate-Guitar.com Take our survey!
×
Author
Difficulty
Tuning
novice
D# G# C# F# A# D#
Artist: Thomas Holm
Song: Selvmord paa Dansegulvet

tuning: Half step down

Tabs by: stakkelslasse

!!UPDATED 13. 7. 2010.!! Instead of just messy chords, I wrote all notes and tried 
to get the strummingrythm down for ya...


intro and verse

e||------------------------------------------------------------------------|
B||------------------------------------------------------------------------|
G||------------------------------------------------------------------------|
D||--4-x-4-x-4-xxxx-7777-4-x-4-x-4-xxxx-7777-----------xxxx-9999-4-x-4-x-4-|
A||--2-x-2-x-2-xxxx-5555-2-x-2-x-2-xxxx-5555-5-x-5-x-2-xxxx-7777-2-x-2-x-2-|
E||------------------------------------------3-x-3-x-0-xxxx----------------|
   
          * *     * is a short note
e||------------|
B||------------|
G||------------|
D||--xxxx-9-9--| play 4 times
A||--xxxx-7-7--|
E||------------|



build-up

e||---------------------------------------------------------------------|
B||---------------------------------------------------------------------|
G||---------------------------------------------------------------------| 
D||------------------4-4-444--------------------------------------------|
A||--5-5-555-4-4-444-2-2-222-2-2-222-5-5-555-5-5-555-4-4-444-4-4-444----|
E||--3-3-333-2-2-222---------0-0-000-3-3-333-3-3-333-2-2-222-2-2-222----|

play once ^^


chorus

e||----------------------------------------------------------------------|
B||----------------------------------------------------------------------|
G||---------------------------------------------------play 4 times-------|
D||--4-44-444-7-77-777---------------------------------------------------|
A||--2-22-222-5-55-555-5555-555-4-44-444---------------------------------|
E||--------------------3333-333-2-22-222---------------------------------|


verse

e||------------------------------------------------------------------------|
B||------------------------------------------------------------------------|
G||------------------------------------------------------------------------|
D||--4-x-4-x-4-xxxx-7777-4-x-4-x-4-xxxx-7777-----------xxxx-9999-4-x-4-x-4-|
A||--2-x-2-x-2-xxxx-5555-2-x-2-x-2-xxxx-5555-5-x-5-x-2-xxxx-7777-2-x-2-x-2-|
E||------------------------------------------3-x-3-x-0-xxxx----------------|
   
          * *
e||------------|
B||------------|
G||------------|
D||--xxxx-9-9--| play 2 times
A||--xxxx-7-7--|
E||------------|


build-up

e||---------------------------------------------------------------------|
B||---------------------------------------------------------------------|
G||---------------------------------------------------------------------|
D||------------------4-4-444--------------------------------------------| 
A||--5-5-555-4-4-444-2-2-222-2-2-222-5-5-555-5-5-555-4-4-444-4-4-444----|
E||--3-3-333-2-2-222---------0-0-000-3-3-333-3-3-333-2-2-222-2-2-222----|

play once ^^


Chorus

e||----------------------------------------------------------------------|
B||----------------------------------------------------------------------|
G||---------------------------------------------------play 3 times-------|
D||--4-44-444-7-77-777---------------------------------------------------|
A||--2-22-222-5-55-555-5555-555-4-44-444---------------------------------|
E||--------------------3333-333-2-22-222---------------------------------|



post-chorus i think?

     Bm D  G  F#
e||--2--2--3--2--|
B||--3--3--3--2--|
G||--4--2-----3--| strum down and let each chord ring!
D||--4--0-----2--| play 4 times
A||--2--0--2--4--|
E||-----2--3--2--|


outro

e||----------------------------------------------------------------------|
B||----------------------------------------------------------------------|
G||---------------------------------------------------play 8 times-------|
D||--4-44-444-7-77-777---------------------------------------------------|
A||--2-22-222-5-55-555-5555-555-4-44-444---------------------------------|
E||--------------------3333-333-2-22-222---------------------------------|


Listen for the rythm! I tried the best I could to write it down, but if it is to 
confusing then listen to the song :-)
Suggest correction
Give kudos to tab author, rate the tab!
1 2 3 4 5
comments
print report bad tab
guest
You may want to rate the tab now too:
select rating
Wanna post a correction for this tab? Suggest correction