Oops, an error
Loading. Please wait.

Thrillville - Whiplash Tab

1 view 1 this week
no commentswrite comment
1 2 3 4 5
3 more votes to show rating
add to favorites
launch autoscroll
font size
0
reset
how to read this tab
guitar tuner
Autoscroll
slow
fast
+/-
esc
set tempo
stop
Help us to improve Ultimate-Guitar.com Take our survey!
×
Author
Difficulty
novice
About this tab version
Thrillville has been out for 10 years now, but I have yet to see tabs of any kind exist anywhere on the internet, so i took it upon myself to get the ball rolling. Please feel free to update this if there are any errors at all. Was this info helpful? Yes No
[Intro]

e|--------------------------|-----------------|-------------------|---------------|
B|--------------------------|-----------------|-------------------|---------------|
G|--2-----------------------|------7-------2--|------2-2-2-2------|-----7---------|  
D|--2-------------------5---|------7-------2--|------2-2-2-2---5--|-----7---------|
A|--0-----3b-p0-3b-p0---5---|------5-------0--|---3--0-0-0-0---5--|-----5--3-2----|
E|--------------------0-3---|---0-------0-----|--------------0-3--|---0-----------|(x4)


[Verse 1]

e|--------------------------|------------------|---------------|------------------|
B|--------------------------|------------------|---------------|------------------|
G|--2----x------------------|------7----x--2---|---x-----------|------7----x------|
D|--2----x--------------5---|---x--7----x--2---|---x-------5---|---x--7----x------|
A|--0----x--------------5---|---x--5----x--0---|---x-------5---|---x--5----x------|
E|----------------------3---|---x--------------|-----------3---|---x--------------|

e|--------------------------|------------------|---------------|------------------|
B|--------------------------|------------------|---------------|------------------|
G|--2----x------------------|------7----x--2---|---x-----------|------7----x------|
D|--2----x--------------5---|---x--7----x--2---|---x-------5---|---x--7----x------|
A|--0----x--------------5---|---x--5----x--0---|---x-------5---|---x--5----x------|
E|----------------------3---|---x--------------|-----------3---|---x----------3-2-|

e|-------------------|-------------------|---------------|
B|-------------------|-------------------|---------------|
G|-------------------|-------------------|------7--------|
D|--2----2-2-2-2-2-2-|-2-2-2-2-2-2-2---5-|------7--------|
A|--2----2-2-2-2-2-2-|-2-2-2-2-2-2-2---5-|------5----3-2-|
E|--0----0-0-0-0-0-0-|-0-0-0-0-0-0-0-2-3-|----0----------|
        PM . . . . .   . . . . . . . .

[Chorus]

e|--------------------------|-----------------|-------------------|---------------|
B|--------------------------|-----------------|-------------------|---------------|
G|--2-----------------------|------7-------2--|------2-2-2-2------|-----7---------|  
D|--2-------------------5---|------7-------2--|------2-2-2-2---5--|-----7---------|
A|--0-----3b-p0-3b-p0---5---|------5-------0--|---3--0-0-0-0---5--|-----5--3-2----|
E|--------------------0-3---|---0-------0-----|--------------0-3--|---0-----------|(x2)


[Verse 2]

e|--------------------------|------------------|---------------|------------------|
B|--------------------------|------------------|---------------|------------------|
G|--2----x------------------|------7----x--2---|---x-----------|------7----x------|
D|--2----x--------------5---|---x--7----x--2---|---x-------5---|---x--7----x------|
A|--0----x--------------5---|---x--5----x--0---|---x-------5---|---x--5----x------|
E|----------------------3---|---x--------------|-----------3---|---x--------------|

e|--------------------------|------------------|---------------|------------------|
B|--------------------------|------------------|---------------|------------------|
G|--2----x------------------|------7----x--2---|---x-----------|------7----x------|
D|--2----x--------------5---|---x--7----x--2---|---x-------5---|---x--7----x------|
A|--0----x--------------5---|---x--5----x--0---|---x-------5---|---x--5----x------|
E|----------------------3---|---x--------------|-----------3---|---x----------3-2-|

e|------------------|-------------------|-----------------|---------------------|
B|------------------|-------------------|-----------------|---------------------|
G|--2---------------|---------7-7-7---2-|-----2-2-2-2-----|-------7-7-7---------|
D|--2-------------5-|--5-5----7-7-7---2-|-----2-2-2-2---5-|-5-5---7-7-7---------|
A|--0-0-3b-0-3b---5-|--5-5----5-5-5---0-|-0-3-0-0-0-0---5-|-5-5---5-5-5-3-2-----|
E|--------------0-3-|--3-3--0-------0---|-------------0-3-|-3-3-0---------------|

  PM. . .  . .  . .    . .  . . . . . .   . . . . . . . .   . . . . . . . .  

e|------------------|-------------------|-----------------|---------------------|
B|------------------|-------------------|-----------------|---------------------|
G|--2---------------|---------7-7-7---2-|-----2-2-2-2-----|-------7-7-7---------|
D|--2-------------5-|--5-5----7-7-7---2-|-----2-2-2-2---5-|-5-5---7-7-7---------|
A|--0-0-3b-0-3b---5-|--5-5----5-5-5---0-|-0-3-0-0-0-0---5-|-5-5---5-5-5-3-2-----|
E|--------------0-3-|--3-3--0-------0---|-------------0-3-|-3-3-0---------------|

  PM. . .  . .  . .    . .  . . . . . .   . . . . . . . .   . . . . . . . .  

e|-------------------|-------------------|---------------|
B|-------------------|-------------------|---------------|
G|-------------------|-------------------|------7--------|
D|--2----2-2-2-2-2-2-|-2-2-2-2-2-2-2---5-|------7--------|
A|--2----2-2-2-2-2-2-|-2-2-2-2-2-2-2---5-|------5----3-2-|
E|--0----0-0-0-0-0-0-|-0-0-0-0-0-0-0-2-3-|----0----------|
        
        PM . . . . .   . . . . . . . . 

[Chorus]

e|--------------------------|-----------------|-------------------|---------------|
B|--------------------------|-----------------|-------------------|---------------|
G|--2-----------------------|------7-------2--|------2-2-2-2------|-----7---------|  
D|--2-------------------5---|------7-------2--|------2-2-2-2---5--|-----7---------|
A|--0-----3b-p0-3b-p0---5---|------5-------0--|---3--0-0-0-0---5--|-----5--3-2----|
E|--------------------0-3---|---0-------0-----|--------------0-3--|---0-----------|(x2)


[Bridge]

e|-------------------|-----------------------|-------------------|------------------|------------------|
B|-------------------|-----------------------|-------------------|------------------|------------------|
G|-------------------|-------7-------2-------|-------------------|-------7----------|------------------|
D|--2----2-2-2-2---5-|-------7-------2-------|--2----2-2-2-2---5-|-------7----------|-2-2-2-2-2-2------|
A|--2----2-2-2-2---5-|-------5-------0-------|--2----2-2-2-2---5-|-------5----5-6-7-|-2-2-2-2-2-2-3-2--|
E|--0----0-0-0-0-2-3-|----0-------0------3-2-|--0----0-0-0-0---3-|----0-------------|-0-0-0-0-0-0------|
         . . . .                                     . . . .                          . . . . . .



[Solo]

e|--------------------------|-----------------|-------------------|---------------|
B|--------------------------|-----------------|-------------------|---------------|
G|--2-----------------------|------7-------2--|------2-2-2-2------|-----7---------|  
D|--2-------------------5---|------7-------2--|------2-2-2-2---5--|-----7---------|
A|--0-----3b-p0-3b-p0---5---|------5-------0--|---3--0-0-0-0---5--|-----5--3-2----|
E|--------------------0-3---|---0-------0-----|--------------0-3--|---0-----------|(x2)

e|-------------------|------------------|---------------|
B|-------------------|------------------|---------------|
G|-------------------|------------------|------7--------|
D|--2----2-2-2-2-2-2-|-2-2-2-2-2-2----5-|------7--------|
A|--2----2-2-2-2-2-2-|-2-2-2-2-2-2----5-|------5----3-2-|
E|--0----0-0-0-0-0-0-|-0-0-0-0-0-0-2--3-|----0----------|
        PM . . . . .   . . . . . . . . 

[Outro]

e|--------------------------|-----------------|-------------------|---------------|
B|--------------------------|-----------------|-------------------|---------------|
G|--2-----------------------|------7-------2--|------2-2-2-2------|-----7---------|  x10
D|--2-------------------5---|------7-------2--|------2-2-2-2---5--|-----7---------|
A|--0-----3b-p0-3b-p0---5---|------5-------0--|---3--0-0-0-0---5--|-----5--3-2----|
E|--------------------0-3---|---0-------0-----|--------------0-3--|---0-----------|

e|----------|
B|----------|
G|--2-------|
D|--2-------|
A|--0-------|
E|----------|

************************************

| p   Pull-off
| b   Bend
| PM  Palm mute

************************************
Suggest correction
Give kudos to tab author, rate the tab!
1 2 3 4 5
comments
print report bad tab
guest
You may want to rate the tab now too:
select rating
Wanna post a correction for this tab? Suggest correction