Oops, an error
Loading. Please wait.

Throne Of Entrails - Koala In A Waffle Iron Tab

147 views 1 this week
no commentswrite comment
1 2 3 4 5
please rate
add to favorites
launch autoscroll
font size
0
reset
how to read this tab
guitar tuner
Tab Pro tools
  • play this tab
  • loop segment
  • change instrument
  • show fretboard
  • metronome
Autoscroll
slow
fast
+/-
esc
set tempo
stop
Contributor
Difficulty
Tuning
intermediate
C G C F A D
written and tabbed by Jon Jamison
Song- Koala In a Waffle Iron
Band- Throne of Entrails
100% correct
tuning c,g,c,f,a,d
Starting Tempo 120bpm

intro                          2x
---------------------------------|
---------------------------------|
---------------------------------|
2-223-335-5565352-223-335-556535-|
2-223-335-5565352-223-335-556535-|
2-223-335-5565352-223-335-556535-|

pick up                    4x
----------------------------|
----------------------------|
----------------------------|
2222222233333333555555556535
2222222233333333555555556535
2222222233333333555555556535

1 measure rest

TREMLO
--------------------------------|
--------------------------------|
--------------------------------|
--------------------------------|
----------44--------------------|
2222222255--55332222222255336655

"AUNT JEMIMA"
--------------------------------|
--------------------------------|
--------------------------------|
------------------------5-3-6-5-|
----------44------------5-3-6-5-|
2222222255--5533222222225-3-6-5-|

TREMLO
--------------------------------|
--------------------------------|
--------------------------------|
--------------------------------|
----------44--------------------|
2222222255--55332222222255336655

"BURN FROM HEAD TO TOE"
--------------------------------|
--------------------------------|
--------------------------------|
------------------------3-2-5-3-|
----------44------------3-2-5-3-|
2222222255--5533222222223-2-5-3-|

1st BREAKDOWN
--------------------------------|
--------------------------------|
--------------------------------|
2-222--222-3-3-32-222-226535653-|
2-222--222-3-3-32-222-226535653-|
2-222--222-3-3-32-222-226535653-|


----------------------|
----------------------|
----------------------|
2-222--222-3-3-32-222-|
2-222--222-3-3-32-222-|
2-222--222-3-3-32-222-|

100bpm tempo drop
----------|
----------|
----------|
226535653-
226535653-
226535653-
                             2x
------------------------------|
------------------------------|
------------------------------|
2-222--222-3-3-32-222-6535653-|
2-222--222-3-3-32-222-6535653-|
2-222--222-3-3-32-222-6535653-|

130 pick up          2x
----------------------|
----------------------|
----------------------|
2-2232-22535-22652353-|
2-2232-22535-22652353-|
2-2232-22535-22652353-|

"burn it the fuck alive" Tremlo 2x
---------------------------------|
---------------------------------|
---------------------------------|
---------------------------------|
---------------------------------|
223322225533555566553355665533333

               2x
----------------|
----------------|
----------------|
232-535-6535653-|
232-535-6535653-|
232-535-6535653-|

2nd breakdown
------------------------------|
------------------------------|
------------------------------|
2-222--222-3-3-32-222-6535653-|
2-222--222-3-3-32-222-6535653-|
2-222--222-3-3-32-222-6535653-|


----------------------|
----------------------|
----------------------|
2-222--222-3-3-32-222-|
2-222--222-3-3-32-222-|
2-222--222-3-3-32-222-|

90bpm tempo drop
--------|
--------|
--------|
6535653-
6535653-
6535653-
                             2x
------------------------------|
------------------------------|
------------------------------|
2-222--222-3-3-32-222-6535653-|
2-222--222-3-3-32-222-6535653-|
2-222--222-3-3-32-222-6535653-|

www.myspace.com/throneofentrails
comments
We did not receive enough feedback on this tab! Please rate:
print report bad tab
1 2 3 4 5
I want to post or [tab]
guest
You may want to rate the tab now too:
select rating
Please do not post tabs as comments. Select "correction" instead!