Oops, an error
Loading. Please wait.

Through My Passion - Arizona Bass Tab

121 views 1 this week
no commentswrite comment
1 2 3 4 5
please rate
add to favorites
launch autoscroll
font size
0
reset
guitar tuner
Tab Pro tools
  • play this tab
  • loop segment
  • change instrument
  • show fretboard
  • metronome
Autoscroll
slow
fast
+/-
esc
set tempo
stop
Contributor
Difficulty
intermediate
Written by Long Island Band "Through My Passion"
Good warm-up for practicing hammer-ons, sliding, bass chords and finger movement.

Bassist: Luke DeSarbo

Enjoy!!




Verse

G|--------7-7---------5------5h7p5p0-----|
D|-------------5h6h7----7----------------|
A|----5----------------------------------|  x2
E|---------------------------------------|

G|---------------------------------------|
D|--------7-7----------------------------|
A|-------------5-6-7-6-5----5------------|  X2
E|----5-------------------7---7----------|


Chorus

G|-----------19-19-19/7------------------|
D|-----------19-19-19/7------------------|
A|---5-5/17--17-17-17/5------------------|  x2
E|---------------------------------------|


G|------------------------------------------------------------|
D|-----------19-19-19/7--------------19/17-17/15-15/14-14-----|
A|-----------19-19-19/7--------------19/17-17/15-15/14-14-----|
E|---5-5/17--17-17-17/5------5-5/17--17/15-15/13-13/12-12-----|  


Verse variation (Synth Wah Pedal):

G|-----7p5h7p5h7p5h7p5h7p5h7p5h7p5h7p5h7p5---------|
D|-------------------------------------------------|
A|-------------------------------------------------|
E|-------------------------------------------------|



comments
We did not receive enough feedback on this tab! Please rate:
print report bad tab
1 2 3 4 5
I want to post or [tab]
guest
You may want to rate the tab now too:
select rating
Please do not post tabs as comments. Select "correction" instead!