Oops, an error
Loading. Please wait.

Through These City Streets - The Hole In Edward Nortons Chest Tab

150 views 1 this week
1 commentread comment
1 2 3 4 5
3 more votes to show rating
add to favorites
launch autoscroll
font size
0
reset
how to read this tab
guitar tuner
Autoscroll
slow
fast
+/-
esc
set tempo
stop
Help us to improve Ultimate-Guitar.com Take our survey!
×
Difficulty
Tuning
intermediate
C G C F A D
Artist - Through These City Streets
Song - The Hole In Edward Norton's Cheek
Album - The Day After Tragedy [EP]
Website - http://www.myspace.com/throughthesecitystreets
Tuning-Drop C
D
A
F
C
G
C

Note: This is the lead guitar section only. Btw, This is 100% because well...I wrote it.

Intro (4x)

|-------
|-------10-10-10-------10-10-10-10-10-10-------10-10-10-10------10------|
|--------8--8--8--------8--8--8--8--8--8--------8--8--8---8-8-7--8-8-7--|
|-0-0-0--7--7--7-0-0-0--7--7--7--7--7--7-0-0-0--7--7--7----7---8--7---8-|
|-0-0-0----------0-0-0-------------------0-0-0--------------------------|
|-0-0-0----------0-0-0-------------------0-0-0--------------------------|

Chorus

|-----------------------------------------------------------------------|
|----------10/12/9/7/9----------10/12/14/12/15--------------------------|
|-----------x/x/-x/x/x-----------x/-x/-x/-x/-x--------------------------|
|-000000000-8/10/7/5/7-00000000--8/10/12/10/13--------------------------|
|-000000000----------------00000000-------------------------------------|
|-000000000----------------00000000-------------------------------------|

Verse pt. 1 (4x)

|----------------------0-0-0
|----------------------4-4-4
|---------------------------
|-0-0000-0-0000-0-0000------
|-0-0000-0-0000-0-0000------
|-0-0000-0-0000-0-0000------
    ****   ****   ****

Verse pt. 2 (4x) (Notes Parenthesized played last time through only)

|-0--0-----0-----0-----0-----0-0-0-(0)-|
|-4--4-----4-----4-----4-----4-4-4-(4)-|
|--------------------------------------|
|------0000--0000--0000--0000----------|
|------0000--0000--0000--0000----------|
|------0000--0000--0000--0000----------|

(Chorus)

Bridge 1 (2x)

|----------------------------------------------------------------------|
|----------------------------------------------------------------------|
|--2---0-0-2-2-1-1---2---0-0-3-3-2-2---2---0-0-2-2-1-1--3-2-1----------|
|-0-0-2-2-2-2-2-2-2-0-0-2-2-2-2-2-2-2-0-0-2-2-2-2-2-2-2------3-2-1-1h2-|
|----------------------------------------------------------------------|
|----------------------------------------------------------------------|

Verse Two (4x)

|----------------------------------------|
|----------------------------------------|
|------9-9-9-9-9-9h10------10-9-12-7-7-7-|
|-0000-0-0-0-0-0-0----0000--0-0--0-0-0-0-|
|-0000----------------0000---------------|
|-0000----------------0000---------------|

Bridge 2 (Solo pt. 1)

|---------------------------------------------------------------|
|---------------------------------------------------------------|
|----10p0-9p0-7p0-5p0-3p0-2p0-2h3---10p0-9p0-7p0-5p0-3p0-2p0-2--|
|-0-0----------------------------0-0--------------------------3-|
|---------------------------------------------------------------|
|---------------------------------------------------------------|

|--------------------------------------------------------------------|
|-----------------------------------------------------------10-11-13-|
|----10p0-9p0-7p0-5p0-3p0-2p0-2h3---9-10-12-10-9-7---9-10-12---------|
|-0-0----------------------------0-0--------------0-0----------------|
|--------------------------------------------------------------------|
|--------------------------------------------------------------------|

|-------------------10-11-13---------|
|-----------10-11-13--------13-11-10-|
|----9-10-12-------------------------| (Repeat This Section Twice)
|-0-0--------------------------------|
|------------------------------------|
|------------------------------------|

Bridge 3

|------------------------------------------------------------------|
|------------------------------------------------------------------|
|------------------------------------------------------------------|
|-0000000-88888888-0000000----------------0000000-88888888-0000000-|
|-0000000-88888888-0000000-12-10-8-10-8-7-0000000-88888888-0000000-|
|-0000000-88888888-0000000----------------0000000-88888888-0000000-|

|------------------------------------------------------------------|
|------------------------------------------------------------------|
|------------------------------------------------------------------|
|----------------0000000-88888888-0-0------------------------------|
|-12-10-8-10-8-7-0000000-88888888-0-0-12-10-8-10-8-7^--------------|
|----------------0000000-88888888-0-0------------------------------|

Solo pt. 2

|------------------------------------------------------------------|
|------------------------------------------------------------------|
|------------------------------------------------------------------|
|------5-7-8-10-8-7-------10-8-7----------5-7-8-10-8-7-------------|
|-5-7-8------------10-8-7--------10--5-7-8------------10-8-7-8^----|
|------------------------------------------------------------------|

|-----------------------------------------------------------|
|-----------------------------------------------------------|
|-----------------------------------------------------------|
|------5-7-8-10-8-7-------10-8-7----------5-7-8-10-8-7------|
|-5-7-8------------10-8-7--------10-5-7-8------------10-8-7-|
|-----------------------------------------------------------|

|------------------------------------------------------------------|
|---------------------------------------------7h8h10------7h8h10---|
|-10-8-7-----------10------8---------7--7h8h10------7h8h10---------|
|-------10-8b-8-7-8--8-7-8--8--7--8---8----------------------------|
|------------------------------------------------------------------|
|------------------------------------------------------------------|

Verse Three (2x)

|-----------------------------------------------|
|-----------------------------------------------|
|-----------------------------------------------|
|-77777777-88888888-00-8-7-00-5-7-00-10-7-8-5-7-|
|-77777777-88888888-00-----00-----00------------|
|-77777777-88888888-00-----00-----00------------|

|---------------------------------------------------------------|
|---------------------------------------------------------------|
|-----------------------------------------------10--------------|
|-77777777-88888888-00-8-7-00-5-7-00-8-7-8-7-8-7--8-7-8-7-8-----|
|-77777777-88888888-00-----00-----00----------------------------|
|-77777777-88888888-00-----00-----00----------------------------|

(Chorus)

Outro (Figure Out The Picking, I'm too lazy!)

|---------------------------------------------------------------|
|---------------------------------------------------------------|
|-14-12-10--14-12-10-12-10-9---14-12-15-10--14-12-10-12-10-9----|
|--x--x--x---x--x--x--x--x-x----x--x--x--x---x--x--x--x--x-x----|
|-12-10--8--12-10--8-10--8-7---12-10-13--8--12-10--8-10--8-7----|
|---------------------------------------------------------------|
Suggest correction
Give kudos to tab author, rate the tab!
1 2 3 4 5
comments
print report bad tab
1 comment total.
0 reply
Peepes471 10 Jul 01, 2011 02:14 PM

Post a link to the MP3, i'd love to hear it.

guest
You may want to rate the tab now too:
select rating
Wanna post a correction for this tab? Suggest correction