Oops, an error
Loading. Please wait.

Thunder Kiss - Vulcan Tab

106 views 1 this week
no commentswrite comment
1 2 3 4 5
please rate
add to favorites
launch autoscroll
font size
0
reset
how to read this tab
guitar tuner
Autoscroll
slow
fast
+/-
esc
set tempo
stop
Help us to improve Ultimate-Guitar.com Take our survey!
×
Author
Difficulty
novice
Vulcan By Thunder kiss   (incomplete)            tabs by Kenny Doss, Ryan Thomas, and 
Ravstien  Questions or Comments Email me at kenn28@gmail.com

Alaskan Bands

Lyrics are unknown (are lead singers in jail right now so we dont have the lyrics for this song)

3-3-3-0-5-5-5-0-7-6-5-3-3-3-0-5-5-5-0-4-2-0------------|
-------------------------------------------------------|
-------------------------------------------------------|
-------------------------------------------------------|
-------------------------------------------------------|
-------------------------------------------------------|

-------------------------------------------------------|
3-3-3-0-5-5-5-0-7-6-5-3-3-3-0-5-5-5-0-4-2-0------------|
-------------------------------------------------------|
-------------------------------------------------------|
-------------------------------------------------------|
-------------------------------------------------------|

-------------------------------------------------------|
-------------------------------------------------------|
3-3-3-0-5-5-5-0-7-6-5-3-3-3-0-5-5-5-0-4-2-0------------|
-------------------------------------------------------|
-------------------------------------------------------|
-------------------------------------------------------|

-------------------------------------------------------|
-------------------------------------------------------|
-------------------------------------------------------|
3-3-3-0-5-5-5-0-7-6-5-3-3-3-0-5-5-5-0-4-2-0------------|
-------------------------------------------------------|
-------------------------------------------------------|

-------------------------------------------------------|
-------------------------------------------------------|
-------------------------------------------------------|
-------------------------------------------------------|
3-3-3-0-5-5-5-0-7-6-5-3-3-3-0-5-5-5-0-4-2-0------------|
-------------------------------------------------------|

3-4-3-4-3-4-3-4----------------------------------------|
-------------------2-2-2-3-0-2-3-0-3-2-0-2-3-----------|
-------------------------------------------------------|
-------------------------------------------------------|
-------------------------------------------------------|
-------------------------------------------------------|

5-7-6-0-5-7-6-0-5-7-6-0-5-7-6-0---5-5-7—9--------------|
-------------------------------------------------------|
-------------------------------------------------------|
-------------------------------------------------------|
-------------------------------------------------------|
-------------------------------------------------------|

12-12-12—9—7—5-----------------------------------------|
-----------------------------3-3-3-3-6-5-5-3-1-3-------|
-------------------------------------------------------|
-------------------------------------------------------|
-------------------------------------------------------|
-------------------------------------------------------|

-------------------------------------------------------|
-------------------------------------------------------|
-------------------------------------------------------|
-------------------------------------------------------|
3—3-3-4—4-4-5—5-5----3-3-4-4-5-5-4-4-3-----------------|
-------------------------------------------------------|

-------------------------------------------------------|
-------------------------------------------------------|
-------------------------------------------------------|
-------------------------------------------------------|
3-4-4-5-5-4-4-3-3-4-4-5-5-3-3--------------------------|
-------------------------------------------------------|

5-4-0-5-4-0—5—4—0---5---4---0---5---4---0--------------|
-------------------------------------------------------|
-------------------------------------------------------|
-------------------------------------------------------|
-------------------------------------------------------|
-------------------------------------------------------|

5---4---0---5---4---0---5------4----------0-----------|
------------------------------------------------------|
------------------------------------------------------|
------------------------------------------------------|
------------------------------------------------------|
------------------------------------------------------|
Suggest correction new What's this?
You can suggest a correction to this tab. Community and Mods will review your correction and vote to approve or reject it.
comments
We did not receive enough feedback on this tab! Please rate:
print report bad tab
1 2 3 4 5
guest
You may want to rate the tab now too:
select rating
Please do not post tabs as comments. Select "correction" instead!