Oops, an error
Loading. Please wait.

Thy Catafalque - Heja-Nasz Az Avaron Tab

810 views 6 this week
no commentswrite comment
1 2 3 4 5
please rate
add to favorites
launch autoscroll
font size
0
reset
how to read this tab
guitar tuner
Tab Pro tools
  • play this tab
  • loop segment
  • change instrument
  • show fretboard
  • metronome
Autoscroll
slow
fast
+/-
esc
set tempo
stop
Contributor
Difficulty
novice
Artist: Thy Catafalque
Title: Héja-nász Az Avaron
Album: Tűnő Idő Tárlat (2004)

Tabbed by Goad
Drop D Tuning

Pretty simple song to play.
If you have any suggestions or whatever, just leave a comment.

. = palm mute


Riff 1
e|-----------------|-----------------|-----------------|-----------------|
B|-----------------|-----------------|-----------------|-----------------|
G|-----------------|-----------------|-----------------|-----------------|
D|-3-3-3-3-3-3-3-3-|-3-3-3-3-3-5-5-5-|-7-7-7-7-7-7-7-7-|-7-8-8-7-7-5-5-5-| repeat
A|-3-3-3-3-3-3-3-3-|-3-3-3-3-3-5-5-5-|-7-7-7-7-7-7-7-7-|-7-8-8-7-7-5-5-5-| 3 times
D|-3-3-3-3-3-3-3-3-|-3-3-3-3-3-5-5-5-|-7-7-7-7-7-7-7-7-|-7-7-7-7-7-5-5-5-|

e|-----------------|-----------------|
B|-----------------|-----------------|
G|-----------------|-----------------|
D|-3-3-3-3-3-3-3-3-|-3-3-3-3-0-0-2-2-| repeat from the beginning
A|-3-3-3-3-3-3-3-3-|-3-3-3-3-0-0-2-2-| 2 more times (until 02:04)
D|-3-3-3-3-3-3-3-3-|-3-3-3-3-0-0-2-2-|


Riff 2a
e|------------------|-------------------------|
B|------------------|-------------------------|
G|------------------|-------------------------|
D|-0-0--------------|-0-0---------------------|
A|-0-0--------------|-0-0---------------------|
D|-0-0--------------|-0-0---------------------|
   . .                . .

Riff 2b
e|------------------|-------------------------|
B|------------------|-------------------------|
G|------------------|-----------------------4-|
D|-0-0--5-----4-----|-0-0--7-----5--------4---|
A|-0-0----5-----4---|-0-0----7-----5----2-----|
D|-0-0------3-----2-|-0-0------5-----3--------|
   . .                . .               . .

Repeat Riff 1 again 3 times (2:15 to 4:19)

Repeat Riff 2b 14 times, then end with:

e|------------------|
B|------------------|
G|------------------|
D|-0-0--------------|
A|-0-0--------------|
D|-0-0--------------|
   . .
comments
We did not receive enough feedback on this tab! Please rate:
print report bad tab
1 2 3 4 5
I want to post or [tab]
guest
You may want to rate the tab now too:
select rating
Please do not post tabs as comments. Select "correction" instead!