Oops, an error
Loading. Please wait.

Tie-Dye Quartet - Dreams Tab

42 views 1 this week
no commentswrite comment
1 2 3 4 5
please rate
add to favorites
launch autoscroll
font size
0
reset
how to read this tab
guitar tuner
Tab Pro tools
  • play this tab
  • loop segment
  • change instrument
  • show fretboard
  • metronome
Autoscroll
slow
fast
+/-
esc
set tempo
stop
                                 Dreams                                      


                                                        Tie-Dye Quartet
~60bpm



     ^        ^           ^                                             
     H        H           W                     E.  S E.  S Q    E.  S  
E||--7--------6--------|--6----------------||--------------------------|
B||--7--------6--------|--6----------------||--------------------------|
G||--7--------6--------|--7----------------||*------7------------------|
D||--6--------7--------|--6----------------||*--------6----------------|
A||--------------------|--8----------------||------------------------5-|
E||--------------------|--6----------------||---6---------6-8----9-----|


  E  E  E   E  Q    Q        E.  S E.  S Q    E.  S    E  E  E   E  Q    Q      
--------------------------|-------------------------|--------------------------|
--------------------------|-------------------------|--------------------------|
-----6--6s-----4----3s----|------7------------------|-----6--6s-----4----3s----|
-----5--5s-----3----2-----|--------6----------------|-----5--5s-----3----2-----|
--6---------4-------------|-----------------------5-|--6---------4-------------|
--------------------------|--6---------6-8----9-----|--------------------------|


  E.  S E.  S Q    E.  S    E  E  E   E  Q    Q        E.  S E.  S Q    E.  S  
-------------------------|--------------------------|-------------------------|
-------------------------|--------------------------|-------------------------|
------7------------------|-----6--6s-----4----3s----|------7------------------|
--------6----------------|-----5--5s-----3----2-----|--------6----------------|
-----------------------5-|--6---------4-------------|-----------------------5-|
--6---------6-8----9-----|--------------------------|--6---------6-8----9-----|


  E  E  E   E  Q    Q         E.   S  E.   S  Q     E.   S  
--------------------------|--------------------------------|
--------------------------|--------------------------------|
-----6--6s-----4----3s----|-------12-----------------------|
-----5--5s-----3----2-----|----------11--------------------|
--6---------4-------------|-----------------------------10-|
--------------------------|--11-----------11-13----14------|


  E.   S E.  S  Q     E.  S    E.  S E.  S Q    E.  S  
----------------------------|-------------------------|
----------------------------|-------------------------|
------10--------------------|------7------------------|
---------9------------------|--------6----------------|
--------------------------8-|-------------------------|
--9----------9-11----12-----|--6---------6-4----3---4-|


  E  E   Q     Q    Q       E  E    Q     Q     Q       E  E   Q     Q    Q     
-------------------------|---------------------------|-------------------------|
-------------------------|---------------------------|-------------------------|
-----7s--9----10----9----|-----7s--11----12----11----|-----7s--9----10----9----|
-----6s--8-----9----8----|-----6s--10----11----10----|-----6s--8-----9----8----|
-------------------------|---------------------------|-------------------------|
--6----------------------|--6------------------------|--6----------------------|


  E.  S E.  S Q    E.  S    E  E  Q    H            E   E   Q     H           
-------------------------|----------------------|---------------------------||
-------------------------|----------------------|---------------------------||
------7------------------|-----4--4----6--------|---9---9---9----10--------*||
--------6----------------|-----5--5----7--------|--10--10--10-----9--------*||
-------------------------|----------------------|---------------------------||
--6---------6-4----3---4-|--3-----L----5--------|---8-------L-----9---------||




Duration Legend
---------------
W - whole
H - half
Q - quarter
E - 8th
S - 16th
T - 32nd
X - 64th
. - note dotted
|-n-|  - n-tuplets


Tablature Legend
----------------
L - tied note
x - dead note
g - grace note
(n) - ghost note
> - accentuded note
NH - natural harmonic
AH - artificial harmonic
TH - tapped harmonic
SH - semi harmonic
PH - pitch harmonic
h - hammer on
p - pull off
b - bend
br - bendRelease
pb - preBend
pbr - preBendRelease
brb - bendReleaseBend
\n/ - tremolo bar dip
\n - tremolo bar dive
-/n - tremolo bar Release up
/n\ - tremolo bar inverted dip
/n - tremolo bar return
-\n - tremolo bar Release down
S - shift slide
s - legato slide
/ -  slide into from below or out of upwards
\ -  slide into from above or out of downwards
~ - vibrato
W - wide vibrato
tr - trill
TP - tremolo picking
T - tapping
S - slap
P - pop
< - fade in
^ - brush up
v - brush down
comments
We did not receive enough feedback on this tab! Please rate:
print report bad tab
1 2 3 4 5
I want to post or [tab]
guest
You may want to rate the tab now too:
select rating
Please do not post tabs as comments. Select "correction" instead!