Oops, an error
Loading. Please wait.

Tila Tequila - Summer Nightfalls Tab

538 views 1 this week
no commentswrite comment
1 2 3 4 5
accurate
x 2
add to favorites
launch autoscroll
font size
0
reset
how to read this tab
guitar tuner
Tab Pro tools
  • play this tab
  • loop segment
  • change instrument
  • show fretboard
  • metronome
Autoscroll
slow
fast
+/-
esc
set tempo
stop
Contributor
Difficulty
novice
--------------------------------------
  "Summer Nightfalls" - Tila Tequila
     www.myspace.com/tilatequila
--------------------------------------
Tabbed by: Justin RiRaY
Email: Pakman7JR@hotmail.com       
AIM: BeatPwner

     Tila is soooooo cute and this
song just made me love her even more.

Tuning: eBGDAE


     VERSE

e|--0--0--0----0--0--|
B|--0--0--0----0--0--|
G|--9--8--9----8--9--|
D|--9--9--9----9--9--|
A|--7--7--x----x--0--|
E|--0--0--9----7-----|


     CHORUS
 
e|--0--0--0--0---0--0--0-0-0--|
B|--0--0--0--0---0--0--0-0-0--|
G|--9--9--9--9---9--9--9-9-9--|
D|--9--9--9--9---9--9--9-9-9--|
A|--7--0--x--x---7--0--x-x-0--|
E|--------9--7---------9-7----|


     Post-CHORUS
                    2nd Guitar
e|--0--0--0--0--| ---0-0-0-0-0--0-|
B|--0--0--0--0--| ----------------|
G|--9--9--9--9--| --9-9-9-9-9-99--|
D|--9--9--9--9--| ----------------|
A|--7--x--x--0--| ----------------|
E|-----9--7-----| ----------------|


     BRIDGE
                     2nd Guitar
e|--0--0--0--0--| -------------------|
B|--0--0--0--0--| -------------------|
G|--9--9--9--9--| ----9-8---8-9-8----|
D|--9--9--9--9--| --9-----9-------9--|
A|--7--9--x--0--| -------------------|
E|--------9-----| -------------------|


     BREAKDOWN

e|--0--0--0--0--|
B|--0--0--0--0--|
G|--9--9--9--9--|
D|--9--9--9--9--|
A|--7--x--x--0--|
E|-----9--7-----|
comments
We did not receive enough feedback on this tab! Please rate:
print report bad tab
1 2 3 4 5
I want to post or [tab]
guest
You may want to rate the tab now too:
select rating
Please do not post tabs as comments. Select "correction" instead!