Oops, an error
Loading. Please wait.

Tim Hassall - Little Black Dress Tab

68 views 1 this week
no commentswrite comment
1 2 3 4 5
please rate
add to favorites
launch autoscroll
font size
0
reset
how to read this tab
guitar tuner
Autoscroll
slow
fast
+/-
esc
set tempo
stop
Help us to improve Ultimate-Guitar.com Take our survey!
×
Author
Difficulty
Capo
intermediate
2nd fret
-------------------------------------------------------------------------------
                             Little Black Dress - Tim Hassall
-------------------------------------------------------------------------------
Tabbed by: Tim Hassall
http://timhassall.bandcamp.com/
http://www.facebook.com/timhassallmusic
http://www.timhassall.com

Capo 2nd fret (all chord shapes and tab are in relation to capo)

C9:     X32030
G:      320033
D:      XX0232

Intro riff

e:---3------3-----3-----------3------3-----3-----------3------3-----3-|
B:----3------3-----3-----------3------3-----3-----------3------3-----3|
G:--0------0-----0-----------0------0-----0-----------0------0-----0--|
D:--------------------------------------------------------------------|
A:------0h2---2h3---2h3-2-0------0h2---2h3---2h3-2-0------0h2---2h3---|
E:-3------------------------3------------------------3----------------|

e:------------3------3---------|
B:--------------3------3-------|
G:-----------0------0----------| 
D:-----------------------------|
A:-2h3-2-0-------0h2-----------|
E:---------3-------------3-----|

Lead guitar (in relation to capo – to play at correct pitch without capo add 2 
frets or 1 whole tone)

e:----------------------------------------------------------|
B:----------------------------------------------------------| 
G:--2h4----------2h4-4/7------2h4---------------------------|
D:--------0h2------------0h2-------0h2----0h2-0-------------|
A:-----------------------------------------------2---0------|
E:------------------------------------------------------3---|


Intro riff

Verse
         C9                             G
It dont take the news to give me the blues
        C9                                G     
Or a shot to my chest to make me loose rest
         C9                                   G
And the passin of time dont trouble my mind

        D           C9          D                        C9             G          C9  G       
All it takes, all it takes, all it takes is a little black dress and Im a mess.



C9                                G
When I turn out the light, well I sleep alright
           C9                             G
With my money and my love Im not too uptight
           C9                               G              D                                    
And the games just a game its not the truth or a test unless


(Intro riff with lead guitar)
She wears a little black dress


Verse
          C9                                            G
Now the legends of old dont weigh much on my soul
         C9                                                 G
Nor the book-keepers tomes diminish the worth of my prose
                C9                            G
Cause most all of time well im doin my best

            D   C9                   D                      C9            G        C9    G
Still all it takes, all it takes, all it takes is a little black dress and im a mess


           C9                       G
And the sharpest mind you aint likely to find
        C9                         G    
Even though I cut back on the smoke and the wine
         C9                           G                  D
Almost everyday Im working to pay my way out west


(Intro riff w/lead guitar)
Back to a little black dress, Back to a little black dress 

Suggest correction
What's this?
You can suggest a correction to this tab. Community and Mods will review your correction and vote to approve or reject it.
comments
We did not receive enough feedback on this tab! Please rate:
print report bad tab
1 2 3 4 5
guest
You may want to rate the tab now too:
select rating
Please do not post tabs as comments. Select "correction" instead!