Oops, an error
Loading. Please wait.

Tim Hassall - Marilyn Monroe Tab

54 views 1 this week
no commentswrite comment
1 2 3 4 5
please rate
add to favorites
launch autoscroll
font size
0
reset
how to read this tab
guitar tuner
Autoscroll
slow
fast
+/-
esc
set tempo
stop
Help us to improve Ultimate-Guitar.com Take our survey!
×
Author
Difficulty
intermediate
-------------------------------------------------------------------------------
                             Marilyn Monroe - Tim Hassall
-------------------------------------------------------------------------------
Tabbed by: Tim Hassall
Email: timhassallmusic@gmail.com
http://timhassall.bandcamp.com/
http://www.facebook.com/timhassallmusic
http://www.timhassall.com


Notes

Tuning: Drop D
Harmonica: D Harp

Unusual chord shapes:
D: 000232
G: 5X543X
D*: 000235
B*: X24235

Riff 1:
e:----------------------|
B:--3-3/2---------------|
G:---------4--2---------|
D:----------------------|
A:----------------------|
E:----------------------|

Break Riff:

e:----------------------------------------------------------|
B:----------------------------------------------------------|
G:----------------------------------------------------------|
D:-----7-8/9p7-------7--------------------------------------|
A:-7/9--------9-7/9---9--7--5-5-5-7-7/9/7-5-2---2-2-2p0-2/5-|
E:----------------------------------------------------------|

e:----------------------------------------------------------|
B:----------------------------------------------------------|
G:----------------------------------------------------------|
D:-----7-8/9p7-------7----------------------7/9--9-9-9/7-4--|
A:-7/9--------9-7/9---9--7--5-5-5-7-7/9/7-5---------------7-|
E:----------------------------------------------------------|

e:-----------------------------------------------------------|
B:-----------------------------------------------------------|
G:------------------------------------------4---4-4-4p2------|
D:-0h2-4-2p0---0h2--4-2p0------0h2-4-2p0----------------4p2--|
A:-----------2------------2p0------------2-------------------|
E:-----------------------------------------------------------|

e:----------------------------------------------------------|
B:----------------------------------------------------------|
G:----------------------------------------------------------|
D:-0h2-4-2p0---0h2--4-2p0-----------------------------------|
A:-----------2------------2p0-2/--5/--7--9/---12/14---17----|
E:----------------------------------------------------------|




Verse
D                      D*
She listens to the radio but they dont play the
G                            riff 1
kind of songs she likes
D                   D*
The playlist is prearranged and filled with
G
songs picked by marketing guys
Bm                Bm*
Instead shed settle for a living
A                              riff 1
room friends and guitars
G
Instead of synth hooks and beat mash up cooks
A
Shed settle for tapes bootlegged in bars

Break: D, D*, G

Verse
D                            D*
He goes to modern art galleries but dont under-
G                              Riff 1
stand what they promote
D                  D*
An abattoir of modern life on
G
canvass dont give him no hope
Bm               Bm*
Instead hed settle for a painting of
A                              Riff 1
mountains in the snow
G
Instead of intelligent strokes and violent jokes
A
hed settle for a photo of Marilyn Monroe

BREAK - Break Riff (see notes)
same chord structure as verse: D D*, G, D D*, G, Bm Bm*, A, G, A,


Verse

D                     D*
They met in the theatre and marvelled at
G                                Riff 1
all the people acting insane
D                       D*
Held hands in the interval and kissed later on
G
standing in the rain
Bm                 Bm*
Instead of one night theyre planning a
A
future and use affectionate names
G
Instead of dropping out theyre buying a
A
house and forgetting about when the world was insane

BREAK - Break Riff (see notes)
same chord structure as verse: D D*, G, D D*, G, Bm Bm*, A, G, A,

End on D
Suggest correction
What's this?
You can suggest a correction to this tab. Community and Mods will review your correction and vote to approve or reject it.
comments
We did not receive enough feedback on this tab! Please rate:
print report bad tab
1 2 3 4 5
guest
You may want to rate the tab now too:
select rating
Please do not post tabs as comments. Select "correction" instead!