Oops, an error
Loading. Please wait.

Tim Southers - 42 Tab

75 views 1 this week
no commentswrite comment
1 2 3 4 5
please rate
add to favorites
launch autoscroll
font size
0
reset
how to read this tab
guitar tuner
Autoscroll
slow
fast
+/-
esc
set tempo
stop
Help us to improve Ultimate-Guitar.com Take our survey!
×
Author
Difficulty
Tuning
intermediate
D A D G B E
42 by Tim Southers

Tuning: Drop D

Tempo: 180 bpm

Key
~ = let Ring
* = pinch harmonic
. = palm mute

INTRO
|----------------------------------------------------------------|
|----------------------------------------------------------------|
|----------------------------------------------------------------|
|-----7-----7-----7-----7-----7-------5-----5-----5-----5-----5--|
|---5-----5-----5-----5-----5---5---5-----5-----5-----5-----5----|
|-0-----0-----0-----0-----0-------0-----0-----0-----0-----0------|

|----------------------------------------------------------------|
|----------------------------------------------------------------|
|----------------------------------------------------------------|
|-----7-----7-----7-----7-----7--------5----5----8----8-7---7----|
|---5-----5-----5-----5-----5---5---5-----5-----5--------------8-|
|-8-----8-----8-----8-----8-------5-----5-----5-----5-----5------|
                  (Guitar A)^ X2 (:00 - :21)

RIFF 1
|----------------------------------|
|----------------------------------|
|----------------------------------|
|-00000-0-0-0-0-0-0-0-000-00000000-|	X2 Both guitars
|-00000-0-0-0-0-0-0-0-000-00000000-|      (:21 - :26)
|-00000-0-0-0-0-0-0-0-000-00000000-|
  ..... . . . . . . . ... ........

|----------------------------------|
|----------------------------------|
|----------------------------------|
|-88888-8-8-8-8-8-8-8-888-88888888-|	X1 Both Guitars
|-88888-8-8-8-8-8-8-8-888-88888888-|     (:27 - :29)
|-88888-8-8-8-8-8-8-8-888-88888888-|
  ..... . . . . . . . ... ........

|----------------------------------|
|----------------------------------|
|----------------------------------|
|-55555-5-5-5-5-5-5-5-555-55555555-|	X1 Both Guitars
|-55555-5-5-5-5-5-5-5-555-55555555-|     (:29 - :32)
|-55555-5-5-5-5-5-5-5-555-55555555-|
  ..... . . . . . . . ... ........

RIFF 2
|---------------------------------|
|---------------------------------|
|---------------------------------|
|-0-0-000-0-0-000-000-0-0-000-0-0-|	X2 Both Guitars
|-0-0-000-0-0-000-000-0-0-000-0-0-|      (:32 - :37)
|-0-0-000-0-0-000-000-0-0-000-0-0-|
  . . ... . . ... ... . . ... . .

|---------------------------------|
|---------------------------------|
|---------------------------------|
|-8-8-888-8-8-888-888-8-8-888-8-8-|	X1 Both Guitars
|-8-8-888-8-8-888-888-8-8-888-8-8-|       (:37 - :40)
|-8-8-888-8-8-888-888-8-8-888-8-8-|
  . . ... . . ... ... . . ... . .

|---------------------------------|
|---------------------------------|
|---------------------------------|
|-5-5-555-5-5-555-555-5-5-555-5-5-|	X1 Both Guitars
|-5-5-555-5-5-555-555-5-5-555-5-5-|      (:40 - :42)
|-5-5-555-5-5-555-555-5-5-555-5-5-|
  . . ... . . ... ... . . ... . .

BREAKDOWN 1
|-------------------------------------------------------|
|-------------------------------------------------------|
|-------------------------------------------------------|
|-000-000---0-0-0--0-0-0--0-000-000000000-0-0-0-0-4-4-4-|  Both Guitars X2
|-000-000---0-0-0--0-0-0--0-000-000000000-0-0-0-0-4-4-4-|   (:42 - :53)
|-000-000---1-1-1--1-1-1--0-000-000000000-1-1-1-1-4-4-4-|
  ... ...   . . .  . . .  . ... ......... . . . . . . .

BREAKDOWN BUILD
|-----------------------------------------------------------------|
|-----------------------------------------------------------------|
|-----------------------------------------------------------------|
|-----0-------0-------1-------1-------0-------0-------4-------1---|
|-----0-------0-------1-------1-------0-------0-------4-------1---|
|-0-0-0-0-0-0-0-0-1-1-1-1-1-1-1-1-0-0-0-0-0-0-0-0-4-4-4-4-1-1-1-1-|
  . .   . . .   . . .   . . .   . . .   . . .   . . .   . . .   .
                  ^ Both guitars X2 (:53 - 1:03) ^

BREAKDOWN
|------------------------------------------------------------|
|------------------------------------------------------------|
|------------------------------------------------------------|
|-00000--00000--000-000-000-000-00000--00000---00-00-0-0-0-0-|
|-00000--00000--000-000-000-000-00000--00000---00-00-0-0-0-0-|
|-00000--00000--000-000-000-000-00000--00000---00-00-0-0-0-0-|
  .....  .....  ... ... ... ... .....  .....   .. .. . . . .

|--------------------------------------------------|
|--------------------------------------------------|
|--------------------------------------------------|
|-000--000--000--000---0000000--00-0-0-00-00-00-00-|
|-000--000--000--000---0000000--00-0-0-00-00-00-00-|
|-000--000--000--000---0000000--00-0-0-00-00-00-00-|
  ...  ...  ...  ...   .......  .. . . .. .. .. ..
            Both guitars X1 (1:04 - 1:15)

PRE-CHORUS (only one guitar)
|---------0------------------0------------------0-----------------0------|
|-----1-----1---1------1-------1-----------3------3---3------3------3----|
|---2---2-----2------2---2-------2~------2---2------2------2---2------2~-|
|-0----------------0-------------------3-----------------3---------------|
|------------------------------------------------------------------------|
|------------------------------------------------------------------------|
	         ^ Guitar A (Clean X2) (1:14 - 1:25) ^

CHORUS
|---------0------------------0------------------0-----------------0------|
|-----1-----1---1------1-------1-----------3------3---3------3------3----|
|---2---2-----2------2---2-------2~------2---2------2------2---2------2~-|
|-0----------------0-------------------3-----------------3---------------|
|------------------------------------------------------------------------|
|------------------------------------------------------------------------|
	        Guitar A (X4 Distortion) (1:25 - 1:46)
|-------------------------------------------------------------|
|-------------------------------------------------------------|
|-------------------------------------------------------------|
|-0-0-0-0-0-0-0-0~-0~-0-0-0-0-0-3-3-3-3-3-3-3-3~-3~-3-3-3-3-3-|
|-0-0-0-0-0-0-0-0~-0~-0-0-0-0-0-3-3-3-3-3-3-3-3~-3~-3-3-3-3-3-|
|-0-0-0-0-0-0-0-0~-0~-0-0-0-0-0-3-3-3-3-3-3-3-3~-3~-3-3-3-3-3-|
                 ^ Guitar B X2 (1:25 - 1:36) ^

|---------------------------------------------------------------|
|---------------------------------------------------------------|
|---------------------------------------------------------------|
|-0-0-0-0-0-0-0-0--000-0-0-0-0-0-3-3-3-3-3-3-3-3--333-3-3-3-3-3-|
|-0-0-0-0-0-0-0-0--000-0-0-0-0-0-3-3-3-3-3-3-3-3--333-3-3-3-3-3-|
|-0-0-0-0-0-0-0-0--000-0-0-0-0-0-3-3-3-3-3-3-3-3--333-3-3-3-3-3-|
                 ^ Guitar B X2 (1:36 - 1:46) ^

RIFF 3
|---------------------------|
|---------------------------|
|---------------------------|           (Both guitars)
|---------------------------| X4 (4th time with octave effect.)
|---------------------------|           (1:46 - 1:57)
|-000010--080--0-4p0-3p0-3*-|
  ....    .    .

|---------------------------|
|---------------------------|
|---------------------------|            (Both Guitars)
|-000010--080--0-4p0-3p0----|     X3 (use octave every time)
|-000010--080--0-4p0-3p0----|            (1:57 - 2:05)
|-000010--080--0-4p0-3p0-3*-|
  ....    .    .

|-------------------------------------------------------------------------|
|-------------------------------------------------------------------------|
|-------------------------------------------------------------------------|
|-000010--080--0-4p0-3p0-4p0-1~--4~--3~--1~-------------------------------|
|-000010--080--0-4p0-3p0-4p0-1~--4~--3~--1~--00-000000-000000-00000-0-0-0-|
|-000010--080--0-4p0-3p0-4p0-1~--4~--3~--1~--00-000000-000000-00000-0-0-0-|
  ....    .    .                             .. ...... ...... ..... . . .
                ^ X1   Both Guitars (2:05 - 2:13) ^

|-------------------------------------------------------|
|-------------------------------------------------------|
|-------------------------------------------------------|
|-1~-111-1-4~--3~--1~--00000000000000000000000000000000-| Both guitars X1
|-1~-111-1-4~--3~--1~--00000000000000000000000000000000-| (2:13 - 2:21)
|-1~-111-1-4~--3~--1~--00000000000000000000000000000000-|
     ... .             ................................


Pause for Bass fill (2:21 - 2:22)


(Repeat Chorus) (2:22 - 2:44)


INTRO REPEAT
|----------------------------------------------------------------|
|----------------------------------------------------------------|
|----------------------------------------------------------------|
|-----7-----7-----7-----7-----7--------5-----5-----5-----5-----5-|
|---5-----5-----5-----5-----5---5---5-----5-----5-----5-----5----|
|-0-----0-----0-----0-----0-------0-----0-----0-----0-----0------|
|----------------------------------------------------------------|
|----------------------------------------------------------------|
|----------------------------------------------------------------|
|-----7-----7-----7-----7-----7-------5-----5-----8---8-7---7----|
|---5-----5-----5-----5-----5---5---5-----5-----5--------------8-|
|-8-----8-----8-----8-----8-------5-----5-----5-----5-----5------|
                  ^ Guitar B X4 (2:44 - End) ^

|------|
|------|
|------|
|-0~~~-|   X1 Guitar A (2:44 - 2:54)
|-0~~~-|
|-0~~~-|

|-----------------------------------------------------------|
|-----------------------------------------------------------|
|-----------------------------------------------------------|  X1 Guitar A
|-----------------------------------------------------------| (2:54 - 3:05)
|-0-0----------0-0-----------0-0------------0-0-------------|
|-0-0----------0-0-----------0-0------------0-0-------------|
  . .          . .           . .            . .

|---------0----------------0-----------------0-----------------0------|
|-----1-----1---1------1-----1-----------3------3---3------3-----3----|
|---2---2-----2------2---2-----2~------2---2------2------2---2-----2~-|
|-0----------------0-----------------3-----------------3--------------|
|---------------------------------------------------------------------|
|---------------------------------------------------------------------|
                    X4   Guitar A (3:05 - END)

© Tim Southers 2009
Suggest correction
Give kudos to tab author, rate the tab!
1 2 3 4 5
comments
print report bad tab
guest
You may want to rate the tab now too:
select rating
Please do not post tabs as comments. Select "correction" instead!