Oops, an error
Loading. Please wait.

Tim Southers - Andale Tab

95 views 1 this week
no commentswrite comment
1 2 3 4 5
please rate
add to favorites
launch autoscroll
font size
0
reset
how to read this tab
guitar tuner
Autoscroll
slow
fast
+/-
esc
set tempo
stop
Help us to improve Ultimate-Guitar.com Take our survey!
×
Author
Difficulty
Tuning
intermediate
D A D G B E
Andale by Tim Southers

Tuning: Drop D 

Tempo: 120 bpm

Key
~ = let Ring
* = pinch harmonic
. = palm mute
\ = slide down

INTRO
|------------------------------------------|
|------------------------------------------|
|-----14---14---15---12h14---14---15---14~-|
|-0-0----0----0----0-------0----0----0-----|
|------------------------------------------|
|------------------------------------------|    
          (Guitar A)^ (:00 - :32)
|----------------------------------------------------------|
|----------------------------------------------------------|
|----------------------------------------------------------|
|-0~~---0~~---8~~---12~--11~\-0~~---0~~---8~~--10~~--10~~\-|
|-0~~---0~~---8~~---12~--11~\-0~~---0~~---8~~--------10~~\-|
|-0~~---0~~---8~~---12~--11~\-0~~---0~~---8~~--------10~~\-|
                 (Guitar B) ^ (:00 - :16)

|---------------------------------------|
|---------------------------------------|
|---------------------------------------|  
|-0000-0--0--00--0---0--000--000--00--0-|       
|-0000-0--0--00--0---0--000--000--00--0-|   
|-0000-0--0--00--0---0--000--000--00--0-|
  .... .  .  ..  .   .  ...  ...  ..  .

|---------------------------------------|
|---------------------------------------|
|---------------------------------------|  
|-8888-8--8--88--8---8--888--888--88--8-| 
|-8888-8--8--88--8---8--888--888--88--8-|   
|-8888-8--8--88--8---8--888--888--88--8-|
  .... .  .  ..  .   .  ...  ...  ..  .
       (Guitar B)^ X2 (:16 - :32)


POST-INTRO               (1st, 2nd and 4th time)     (3rd time only)
|-----------------------|-----------------------|------------------------|
|-----------------------|-----------------------|------------------------|
|-14~~-14-14-14--14--14-|15--15--15--12--12--12-|-17--17--17--15--15--15-|
|-----------------------|-----------------------|------------------------|
|-----------------------|-----------------------|------------------------|
|-----------------------|-----------------------|------------------------|
                        (Guitar A)^ X4 (:32 - :48)
|-------------------------------------------------------------------------|
|-------------------------------------------------------------------------|
|-------------------------------------------------------------------------|  
|-0-0-0-0-0-0-0-0-0-0-0-0-0-0-0-0-8-8-8-8-8-8-8-8-12-12-12-12-11-11-11-11-| 
|-0-0-0-0-0-0-0-0-0-0-0-0-0-0-0-0-8-8-8-8-8-8-8-8-12-12-12-12-11-11-11-11-|  
|-0-0-0-0-0-0-0-0-0-0-0-0-0-0-0-0-8-8-8-8-8-8-8-8-12-12-12-12-11-11-11-11-|
                        (Guitar B)^ X2 (:32 - :48)


VERSE PART 1
|-------------------------------------|
|-------------------------------------|
|-------------------------------------|
|-------------------------------------|
|-----5-5-----13-13-10-10-----7-7-8-8-|
|-0-0-----0-0-------------0-0---------|
  . .     . .             . .
|-------------------------------------------|
|-------------------------------------------|
|-------------------------------------------|
|-------------------------13-13-10-10-12-12-|
|-----5-5-----13-13-10-10-------------------|
|-0-0-----0-0-------------------------------|
  . .     . .              
      (Both Guitars)^ X2 (:48 - :56)

|----------------------------|----------------------------------|
|----------------------------|----------------------------------|
|----------------------------|----------------------------------|
|----------------------------|-------------------13p0-10p0-12p0-|  
|-----5~-----13-10~-----7-8~-|-----5~-----13-10~----------------|   
|-0-0----0-0--------0-0------|-0-0----0-0-----------------------|
  . .    . .        . .  
                Both Guitars X2 (:56 - 1:04)

VERSE PART 2
|-------------------------------------------------------------------|
|-------------------------------------------------------------------|
|-------------------------------------------------------------------|
|-0-0-0-0-0-0-0-0-0-0-0-0-0-0-0-0-0-0-0-0-0-0-0-0-0-0---------------|
|-0-0-0-0-0-0-0-0-0-0-0-0-0-0-0-0-0-0-0-0-0-0-0-0-0-0-5p0-10p0-12p0-|
|-0-0-0-0-0-0-0-0-0-0-0-0-0-0-0-0-0-0-0-0-0-0-0-0-0-0---------------|
  . . . . . . . . . . . . . . . . . . . . . . . . . . 
     ^ Guitar A X2 (1:04 - 1:08), (1:12 - 1:16) ^
|----------------------------------------------------------------|
|----------------------------------------------------------------|
|----------------------------------------------------------------|
|-0-0-0-0-0-0-0-0-0-0-0-0-0-0-0-0-0-0-0-0-0-0-0-0-0-0------------|
|-0-0-0-0-0-0-0-0-0-0-0-0-0-0-0-0-0-0-0-0-0-0-0-0-0-0---(rest)---|
|-0-0-0-0-0-0-0-0-0-0-0-0-0-0-0-0-0-0-0-0-0-0-0-0-0-0------------|
  . . . . . . . . . . . . . . . . . . . . . . . . . . 
     ^ Guitar B X2 (1:04 - 1:08), (1:12 - 1:16) ^

|--------------------------------------------------------------------|
|--------------------------------------------------------------------|
|--------------------------------------------------------------------|
|-8-8-8-8-8-8-8-8-8-8-8-8-8-8-8-8-8-8-8-8-8-8-8-8-8-8----------------|
|-8-8-8-8-8-8-8-8-8-8-8-8-8-8-8-8-8-8-8-8-8-8-8-8-8-8-13p0-12p0-10p0-|
|-8-8-8-8-8-8-8-8-8-8-8-8-8-8-8-8-8-8-8-8-8-8-8-8-8-8----------------|
  . . . . . . . . . . . . . . . . . . . . . . . . . . 
     ^ Guitar A X2 (1:08 - 1:12), (1:16 - 1:20) ^
|------------------------------------------------------------------|
|------------------------------------------------------------------|
|------------------------------------------------------------------|
|-8-8-8-8-8-8-8-8-8-8-8-8-8-8-8-8-8-8-8-8-8-8-8-8-8-8--------------|
|-8-8-8-8-8-8-8-8-8-8-8-8-8-8-8-8-8-8-8-8-8-8-8-8-8-8----(rest)----|
|-8-8-8-8-8-8-8-8-8-8-8-8-8-8-8-8-8-8-8-8-8-8-8-8-8-8--------------|
  . . . . . . . . . . . . . . . . . . . . . . . . . . 
     ^ Guitar B X2 (1:08 - 1:12), (1:16 - 1:20) ^

VERSE PART 2 BREAK
|------------------------------------------|
|------------------------------------------|
|------------------------------------------|
|-00000000-000000-000-000000---------------|
|-00000000-000000-000-000000-5p0-10p0-12p0-|
|-00000000-000000-000-000000---------------|
  ........ ...... ... ......
         Guitar A X1 (1:20 - 1:24)
|---------------------------------------|
|---------------------------------------|
|---------------------------------------|
|-00000000-000000-000-000000------------|
|-00000000-000000-000-000000---(rest)---|
|-00000000-000000-000-000000------------|
  ........ ...... ... ......
         Guitar B X1 (1:20 - 1:24)

|-------------------------------------------|
|-------------------------------------------|
|-------------------------------------------|
|-88888888-888888-888-888888----------------|
|-88888888-888888-888-888888-13p0-12p0-10p0-|
|-88888888-888888-888-888888----------------|
  ........ ...... ... ......
         Guitar A X1 (1:24 - 1:28)
|---------------------------------------|
|---------------------------------------|
|---------------------------------------|
|-88888888-888888-888-888888------------|
|-88888888-888888-888-888888---(rest)---|
|-88888888-888888-888-888888------------|
  ........ ...... ... ......
         Guitar B X1 (1:24 - 1:28)

|--------------------------------------------------|
|--------------------------------------------------|
|--------------------------------------------------|
|-0000--00--0--00--00--0--00--00--0~---------------|
|-0000--00--0--00--00--0--00--00--0~-5p0-10p0-12p0-|
|-0000--00--0--00--00--0--00--00--0~---------------|
  ....  ..  .  ..  ..  .  ..  .. 
         Guitar A X1 (1:28 - 1:32)
|--------------------------------------------------|
|--------------------------------------------------|
|--------------------------------------------------|
|-0000--00--0--00--00--0--00--00--0~---------------|
|-0000--00--0--00--00--0--00--00--0~----(rest)-----|
|-0000--00--0--00--00--0--00--00--0~---------------|
  ....  ..  .  ..  ..  .  ..  .. 
         Guitar B X1 (1:28 - 1:32)

|-----------------------------|
|-----------------------------|  
|-----------------------------|
|-8~~~-10~~-12~~-10~~-8~~-7~~-|
|-8~~~------------------------|
|-8~~~------------------------|
  Guitar A X1 (1:32 - 1:36)

|--------|
|--------|
|--------|  Guitar B X1
|-8~~~~~-| (1:32 - 1:36)
|-8~~~~~-|
|-8~~~~~-|

BREAKDOWN
|-----------------------------------|
|-----------------------------------|  
|-----------------------------------| (Both Guitars X4)
|-0~----0~--0~--0~--0~-000-0-00-0-0-|   (1:36 - 1:52)
|-0~----0~--0~--0~--0~-000-0-00-0-0-| 
|-0~----0~--0~--0~--0~-000-0-00-0-0-|
                       ... . .. . .

REPEAT VERSE PART 2 (1:52 - 2:08)

REPEAT VERSE PART 1 (2:08 - 2:24)

BREAKDOWN 2
|---------------------------------------------|
|---------------------------------------------|  
|---------------------------------------------|  Guitar A X2
|-00--00-----00-----00--00-----13p0-10p0-12p0-| (2:24 - 2:32)
|-00--00-----00-----00--00--------------------|
|-00--00-----00-----00--00--------------------|
  ..  ..     ..     ..  ..     
|---------------------------------------------|
|---------------------------------------------|  
|---------------------------------------------|  Guitar B X2
|-00--00-----00-----00--00-----20p0-17p0-19p0-| (2:24 - 2:32)
|-00--00-----00-----00--00--------------------|
|-00--00-----00-----00--00--------------------|
  ..  ..     ..     ..  ..     

|--------------------------------------------------|
|--------------------------------------------------|  
|--------------------------------------------------|  Guitar A X2
|-00~--00~-----00~-----00~--00~-----13p0-10p0-12p0-| (2:32 - 2:40)
|-00~--00~-----00~-----00~--00~--------------------|
|-00~--00~-----00~-----00~--00~--------------------|

|--------------------------------------------------|
|--------------------------------------------------|  
|--------------------------------------------------|  Guitar B X2
|-00~--00~-----00~-----00~--00~-----20p0-17p0-19p0-| (2:32 - 2:40)
|-00~--00~-----00~-----00~--00~--------------------|
|-00~--00~-----00~-----00~--00~--------------------|
 
|---------|
|---------|
|---------| Both Guitars
|-0~~~~~~-| {2:40 - 2:44)
|-0~~~~~~-|
|-0~~~~~~-|

|------------------------------------|
|------------------------------------|
|------------------------------------| 
|-0~--0-7-0-7-0-8-0-5-7-0-7-0-8-0-7~-|
|-0~--0-7-0-7-0-8-0-5-7-0-7-0-8-0-7~-|
|-0~--0-7-0-7-0-8-0-5-7-0-7-0-8-0-7~-|
      Guitar B (2:44 - END)

|------------------------------------|
|------------------------------------|
|------------------------------------| 
|-0~--0-7-0-7-0-8-0-5-7-0-7-0-8-0-7~-|
|-0~--0-7-0-7-0-8-0-5-7-0-7-0-8-0-7~-|
|-0~--0-7-0-7-0-8-0-5-7-0-7-0-8-0-7~-|
      Guitar A (2:44 - 2:52)

|--------------------------------------------|
|--------------------------------------------|
|-------14---14---15---12h14---14---15---14~-|
|-0~--0----0----0----0-------0----0----0-----|
|--------------------------------------------|
|--------------------------------------------|
      Guitar A (2:52 - END)
    
© Tim Southers 2009






























Suggest correction
Give kudos to tab author, rate the tab!
1 2 3 4 5
comments
print report bad tab
guest
You may want to rate the tab now too:
select rating
Please do not post tabs as comments. Select "correction" instead!