Oops, an error
Loading. Please wait.

Tim Southers - Difficult Tab

50 views 1 this week
no commentswrite comment
1 2 3 4 5
please rate
add to favorites
launch autoscroll
font size
0
reset
how to read this tab
guitar tuner
Autoscroll
slow
fast
+/-
esc
set tempo
stop
Help us to improve Ultimate-Guitar.com Take our survey!
×
Author
Difficulty
Tuning
intermediate
D A D G B E
Difficult by Tim Southers

Tuning: Drop D 

Tempo: 210 bpm

Key
~ = let Ring
* = pinch harmonic
. = palm mute
\ = slide down
/ = slide up
(o) = ghost note

INTRO 
|------------------------------------------------------------------|
|------------------------------------------------------------------|
|-9---9---9---9---7---7---7---7---12--12--12--12--10--10--10--10---|
|---7---7---7---7---7---7---7---7----7---7---7---7---7---7---7---7-|
|------------------------------------------------------------------|
|------------------------------------------------------------------|	
                   (Guitar A) X2 ^ (:00 - :11)
|-----------------------------------------------------------------|
|-----------------------------------------------------------------|
|-----------------------------------------------------------------|
|-7-7-7-7-7-7-7-7-0-0-0-0-0-0-0-0-3-3-3-3-3-3-3-3-5-5-5-5-5-5-5-5-|
|-7-7-7-7-7-7-7-7-0-0-0-0-0-0-0-0-3-3-3-3-3-3-3-3-5-5-5-5-5-5-5-5-|
|-7-7-7-7-7-7-7-7-0-0-0-0-0-0-0-0-3-3-3-3-3-3-3-3-5-5-5-5-5-5-5-5-|	
                   (Guitar B) X2 ^ (:00 - :11)

TAPPIN' PART 
|-------------------------------------|
|-------------------------------------|
|---9-12---9-12---9-14---9-14---9-----|
|-7------7------7------7------7---12~-|
|-------------------------------------|
|-------------------------------------|	
  t t t  t t t  t t t  t t t  t t t
     (Guitar A) X4 ^ (:11 - :20)
|-----------------------------------------------------|	
|-----------------------------------------------------|	
|-----------------------------------------------------|
|-7-7-7-7---7-7-7-7---10-10---3-3-3-3---3-3-3-3---5-5-|
|-7-7-7-7---7-7-7-7---10-10---3-3-3-3---3-3-3-3---5-5-|	
|-7-7-7-7---7-7-7-7---10-10---3-3-3-3---3-3-3-3---5-5-|	
              (Guitar B) X2 ^ (:11 - :20) 

VERSE PT. 1 (:20 - :29)
|-----------------------------------------|
|-----------------------------------------|
|-----------------------------------------|
|---10--10--9---9----------12-------12-10-| Guitar A
|-----------------10----10-------10-------|
|-7---7---7---7------10-------10----------|	
  .   .   .   .      .  .     .  . 
|---------------------------------|
|---------------------------------|
|---------------------------------|
|---5---5---3---3-2---2-3---3-2-0-| Guitar A
|---------------------------------|
|-3---3---3---3-----0-----0-------|	
  .   .   .   .     .     .

|-----------------------------------------|
|-----------------------------------------|	
|-----------------------------------------|
|-----------------------------------------| Guitar B	
|-7-7-7-7-7-7-7-7-10-10-10-10-10-10-10-10-|	
|-7-7-7-7-7-7-7-7-10-10-10-10-10-10-10-10-|	
  . . . . . . . . .  .  .  .  .  .  .  .                  
|---------------------------------||---------------------------------|
|---------------------------------||---------------------------------|	
|---------------------------------||---------------------------------|
|---------------------------------||---------------------------------|	
|-3-3-3-3-3-3-3-3-5-5-5-5-5-5-5-5-||-3-3-3-3-3-3-3-3-0-0-0-0-0-0-0-0-|	
|-3-3-3-3-3-3-3-3-5-5-5-5-5-5-5-5-||-3-3-3-3-3-3-3-3-0-0-0-0-0-0-0-0-| 	
  . . . . . . . . . . . . . . . .    . . . . . . . . . . . . . . . . 
            (Guitar B)                (last time only)(:27 - :29)

VERSE PT. 2
|-------------------------------------------------------------------------|
|-------------------------------------------------------------------------|
|------9h10p9------9h10p9--t17p9h10h12-----9h10p9------9h10p9--t17p9h10h9-|
|---10-------10--10------10-------------10-------10--10------10-----------|
|-12-----------12---------------------12-----------12---------------------|
|-------------------------------------------------------------------------|
  .            .          X2           .            .
|------------------------------------------------|
|------------------------------------------------|
|-----9h10p9--t17-p9-t17/19\17-p9-h12-t16-p12-p9-|
|---10------10-----------------------------------| (last time only)
|-12---------------------------------------------|
|------------------------------------------------|
  .         (Guitar A) (:29 - :39)
           
|----------------------------------------------------------------------|
|----------------------------------------------------------------------|
|----------------------------------------------------------------------|
|-10-10-10-10-10--9----12-12-12-12-12-10----5-5-5-5-5-3----2-2-2-2-2-0-|
|--7--7--7--7--7--7----10-10-10-10-10-10----5-5-5-5-5-5----0-0-0-0-0-0-|
|--7--7--7--7--7--7----10-10-10-10-10-10----5-5-5-5-5-5----0-0-0-0-0-0-|
		     (Guitar B) X2 (:29 - :38) 

CHORUS PART 1(:38 - :48)
|-----------------------------------------|
|-----------------------------------------|
|-12-------7-------10------12------13-----|
|--x-(x16)-x-(x16)-x-(x16)-x-(x14)-x-(x2)-| Guitar A X1 
|-10-------5-------8-------10------11-----|
|-----------------------------------------|

|-----------------------------------|
|-----------------------------------|
|-(9)------(2)-----(5)-----(7)------|
|--7--------0-------3-------5-------| Guitar B X1
|--7-(x(16)-0-(x16)-3-(x16)-5-(x16)-|
|--7--------0-------3-------5-------|

CHORUS PART 2 (:48 - :57)
|-----------------------------------------------|
|-----------------------------------------------|
|-------------16----------------------16--------| Guitar A
|-------14-------14----14-------14-------14-----|    X1
|-12-12----12-------12----12-12----12-------12~-|
|-----------------------------------------------|
          
|--------------------------------------------------------------------|
|--------------------------------------------------------------------|
|---------7--------------7----------------9------------------9-------|
|-----7-----7---7-----7----7---------10-----10---10-----10-----10----|
|-5-5---5-----5---5-5---5----5~--8-8----8------8----8-8----8------8~-|
|--------------------------------------------------------------------|
                            ^Guitar A X1^
|-----------------------------------------------|
|-----------------------------------------------|
|-------------12----------------------12--------| Guitar A
|-------12-------12----12-------12-------12-----|    X1
|-10-10----10-------10----10-10----10-------10~-|
|-----------------------------------------------|

|---------------------------------------------------|	
|---------------------------------------------------|	
|---------------------------------------------------| Guitar B
|-7-7-7-7---7-7-7-7---7-7---0-0-0-0---0-0-0-0---0-0-|    X1
|-7-7-7-7---7-7-7-7---7-7---0-0-0-0---0-0-0-0---0-0-|
|-7-7-7-7---7-7-7-7---7-7---0-0-0-0---0-0-0-0---0-0-|

|---------------------------------------------------|	
|---------------------------------------------------|	
|---------------------------------------------------| Guitar B 
|-3-3-3-3---3-3-3-3---3-3---5-5-5-5---5-5-5-5---5-5-|    X1
|-3-3-3-3---3-3-3-3---3-3---5-5-5-5---5-5-5-5---5-5-|
|-3-3-3-3---3-3-3-3---3-3---5-5-5-5---5-5-5-5---5-5-|

REPEAT VERSE PT. 1 (:57 - 1:06)

BRIDGE
|-----------------|
|-----------------|
|-----------------| Guitar A X1 (1:06 - 1:15)
|-7~~-5~~-0~~-5~~-| Guitar B X2 (1:06 - 1:24)
|-7~~-3~~-0~~-5~~-|
|-7~~-3~~-0~~-3~~-|

|---------------------------------------------------------------------|
|---------------------------------------------------------------------|
|-----9h10p9-------9h10p9---12-10-9------9h10p9-----9h10p9--12-10-9---|
|---10-------10--10-------10-------10-10-------10-10------10-------10-|
|-12-----------12--------------------8-----------8--------------------|
|---------------------------------------------------------------------|  
                    Guitar A X2 (1:15 - 1:24)

BREAKDOWN
|------------------------------------------------------------------------|
|------------------------------------------------------------------------|
|------------------------------------------------------------------------|
|------------------------------------------------------------------------|
|-77777-77777-7-77--33333-33333-3-33--00000-00000-0-00--33333-33333-3-33-|
|-77777-77777-7-77--33333-33333-3-33--00000-00000-0-00--33333-33333-3-33-|
  ..... ..... . ..  ..... ..... . ..  ..... ..... . ..  ..... ..... . ..
                       Both Guitars X1 (1:25 - 1:33)

|------------------------------------------------------------------------|
|------------------------------------------------------------------------|
|------------------------------------------------------------------------|
|-----7-----7-7-77------3-----3-3-33------0-----0-0-00------3-----3-3-33-|
|-77777-77777-7-77--33333-33333-3-33--00000-00000-0-00--33333-33333-3-33-|
|-77777-77777-7-77--33333-33333-3-33--00000-00000-0-00--33333-33333-3-33-|
  ....  ....        ....  ....        ..... ..... . ..  ....  ....
                       Both Guitars X1 (1:33 - 1:43)

REPEAT INTRO

TAPPIN' PART
|-------------------------------------|
|-------------------------------------|
|---9-12---9-12---9-14---9-14---9-----|
|-7------7------7------7------7---12~-| 
|-------------------------------------|
|-------------------------------------|	
  t t t  t t t  t t t  t t t  t t t
     (Guitar A) X8 ^ (1:52 - 2:10)
|-----------------------------------------------------|	
|-----------------------------------------------------|	
|-----------------------------------------------------|
|-7-7-7-7---7-7-7-7---10-10---3-3-3-3---3-3-3-3---5-5-|
|-7-7-7-7---7-7-7-7---10-10---3-3-3-3---3-3-3-3---5-5-|	
|-7-7-7-7---7-7-7-7---10-10---3-3-3-3---3-3-3-3---5-5-|	
           (Guitar B) X2 ^ (1:52 - 2:01)

|---------------------------------------------------------------------|	
|---------------------------------------------------------------------|	
|---------------------------------------------------------------------|	
|---------------------------------------------------------------------|	
|---------------------------------------------------------------------|	
|-7-7-7-7-7-7-7-7-7-7-7-7-10-10-10-10-3-3-3-3-3-3-3-3-3-3-3-3-5-5-5-5-|	
  . . . . . . . . . . . . . . . . . . . . . . . . . . . . . . . . . . 
                    X1 Guitar B^ (2:01 - 2:05)
|---------------------------------------------------------------------|	
|---------------------------------------------------------------------|	
|---------------------------------------------------------------------|	
|-7-7-7-7-7-7-7-7-7-7-7-7-10-10-10-10-3-3-3-3-3-3-3-3-3-3-3-3-5-5-5-5-|	
|-7-7-7-7-7-7-7-7-7-7-7-7-10-10-10-10-3-3-3-3-3-3-3-3-3-3-3-3-5-5-5-5-|	
|-7-7-7-7-7-7-7-7-7-7-7-7-10-10-10-10-3-3-3-3-3-3-3-3-3-3-3-3-5-5-5-5-|	
                    X1 Guitar B^ (2:05 - 2:10)

REPEAT CHORUS (2:10 - END)


© Tim Southers 2009
Suggest correction
Give kudos to tab author, rate the tab!
1 2 3 4 5
comments
print report bad tab
guest
You may want to rate the tab now too:
select rating
Please do not post tabs as comments. Select "correction" instead!