Oops, an error
Loading. Please wait.

Time Columns - Fall Tab

246 views 1 this week
3 commentsread comments
1 2 3 4 5
please rate
add to favorites
launch autoscroll
font size
0
reset
how to read this tab
guitar tuner
Tab Pro tools
  • play this tab
  • loop segment
  • change instrument
  • show fretboard
  • metronome
×
Best way to learn
"Time Columns - Fall"
Autoscroll
slow
fast
+/-
esc
set tempo
stop
Contributor
Difficulty
advanced
-------------------------------------------------------------------------------
                             FALL - Time Columns
-------------------------------------------------------------------------------
Tabbed by: Kenny Eaton
Email: timecolumns@gmail.com
Listen to Time Columns at http://www.myspace.com/timecolumns
Sunriseinthesea EP 2010

Tuning: Standard (EADGBe)


INTRO (0:00-0:10)
Loop #1

e|-----------|
B|-----------|
G|-------16--|
D|-----14----|
A|---12------|
E|-----------|



(0:10-0:44) 
Repeat this section once
e|-----------------------|
B|-----------------------|
G|--------7---------9----|
D|------9--------10------| x3
A|---10-------12---------|
E|-----------------------|

e|-----------------------|
B|-----------------------|
G|--------7--------5-----|
D|------9--------7-------| x1
A|---10--------8---------|
E|-----------------------|



(0:44-0:48) Loop #1 plays



(0:48-0:53) Overdub on Loop #1

e|--------------|
B|--------------|
G|---16---------|
D|------14------|
A|---------12---|
E|--------------|

(0:53) Guitars in 6/4, Loop in 3/8

e|---------------------------|
B|---------------------------|
G|----------7---------7------|
D|------10--------10---------|
A|---8---------8-------------|
E|---------------------------|

(0:57) Guitars play 7 bars of 3/8

e|-------------------------------|
B|-------------------------------|
G|---9---9---9---------1212------|
D|----10--10--10---1010----1010--|
A|------8---8---888--------------|
E|-------------------------------|

(1:01) Guitars in 6/4, Loop in 3/8

e|---------------------------|
B|---------------------------|
G|----------7---------7------|
D|------10--------10---------|
A|---8---------8-------------|
E|---------------------------|

(1:05) Guitars play 4 bars of 3/8

e|----------------------|
B|----------------------|
G|---9---9---9---1212---|
D|----10--10--10--------|
A|------8---8---8-------|
E|----------------------|

(1:08) Guitars in 6/4, Loop in 3/8

e|---------------------------|
B|---------------------------|
G|----------7---------7------|
D|------10--------10---------|
A|---8---------8-------------|
E|---------------------------|

(1:12) Guitars play 5 bars of 3/8

e|--------------------------|
B|--------------------------|
G|---9---9---9-------1212---|
D|----10--10--10-1010-------|
A|------8---8---8-----------|
E|--------------------------|

(1:15) Guitars in 6/4, Loop in 3/8

e|---------------------------|
B|---------------------------|
G|----------7---------7------|
D|------10--------10---------|
A|---8---------8-------------|
E|---------------------------|

(1:19) Guitars play 6 bars of 3/8

e|----------------------------|
B|----------------------------|
G|---9---9---9---------1212---|
D|----10--10--10---1010-------|
A|------8---8---888-----------|
E|----------------------------|



(1:22) Breakdown (9/8) (Palm Mute)

e|---------------------|
B|---------------------|
G|-------------1212----|
D|--------1010-1414----| x8
A|----8-8-1212---------|
E|---1010--------------|

(1:35) Breakdown (9/8) (Distortion)
e|---------------------|
B|---------------------|
G|-------------1212----|
D|--------1010-1414----| x4
A|----8-8-1212---------|
E|---1010--------------|

e|---------------------|
B|---------------------|
G|-----------1212------|
D|------1010-1010------| x4
A|---88--8-8-1010------|
E|---66--8-8-1010------|

e|----------|
B|----------|
G|--2-------|
D|--2-------|
A|--0-------|
E|--0-------|



INTERLUDE (2:10)

e|----------------------------|
B|----------------------------|
G|--------10------------------|
D|---10h12-------------10-----| x8
A|----------------10h12-------|
E|----------------------------|



Lead Line (2:45) (Stop Loop #1)

e|-----------------------------------------------|
B|------------0-------12----------0--------------|
G|----------0---0---0-----------0---0---0-12-----|
D|-------10------10----------10------10----------| x4
A|--10h12---------------10h12--------------------|
E|-----------------------------------------------|

(3:02)
e|----------------------------|
B|----------0----------0------|
G|--------0----------0--------|
D|------10---------10---------| x4
A|-----8----------8-----------|
E|---10---------10------------|

(3:10)
e|-----------------------------------------------|
B|------------0-------12----------0--------------|
G|----------0---0---0-----------0---0---0-12-----|
D|-------10------10----------10------10----------| x4
A|--10h12---------------10h12--------------------|
E|-----------------------------------------------|

(3:28)
e|---------------------------------------------------------------|
B|---------------------------------------------------------------|
G|------------------------12------------9------------------------|
D|-----------10--------------------------------------10----------|
A|------8------------8-------------8------------8----------------|
E|---10---10------10---10-------10---10------10---10-------------|



Final Loop Part I (3:37) (Repeat Once)

e|----------------------------------------------------|
B|----------------------------------------------------|
G|---121212121212121212121212-------------------------|
D|---------------------------141414141414141414141414-|
A|----------------------------------------------------|
E|----------------------------------------------------|

e|-------------------------------------------------------|
B|-------------------------------------------------------|
G|-------------------------------------------------------|
D|---1212121212121212121212/14101010101010101010101010---|
A|-------------------------------------------------------|
E|-------------------------------------------------------|

Loop Part II (Overdub) (3:54)
e|------------------------------------------------------|
B|------------------------------------------------------|
G|------------------------------------------------------|
D|------------------------------------------------------| x3
A|---121212121212121212121212121212121212121212121212---|
E|------------------------------------------------------|

e|------------------------------------------------------|
B|------------------------------------------------------|
G|------------------------------------------------------|
D|------------------------------------------------------|
A|------------------------------------------------------|
E|---121212121212121212121212131313131313131313131313---|

Loop Part III (Overdub) (4:11)

e|---10----------15-------------|
B|-------13--10----10--13-10----|
G|------------------------------|
D|------------------------------| x16
A|------------------------------|
E|------------------------------|


OUTRO (4:46) (With Loop and overdubs playing)
e|---------------------------------------------------------------|
B|---------------------------------------------------------------|
G|-----------5-------------9--9-----------7---7----------12-9----|
D|---------9---9------7-----7--7------9----9---9------7----------| x8
A|------7--------7-8----8----8--8-10----10--10--10-8----8--------|
E|---5-----------------------------------------------------------|



************************************

| /   slide up
| \   slide down
| h   hammer-on
| p   pull-off
| ~   vibrato
| +   harmonic
| x   Mute note
| b   Bend
| pb  Pre-bend
| br  Bend release
| pbr Pre-bend release
| brb Bend release bend

************************************
comments
We did not receive enough feedback on this tab! Please rate:
print report bad tab
1 2 3 4 5
3 comments total.
0 reply
a god wrote on October 20 2010, 10:17 am

Whoooooooooooooooooooooo!

Last part is so epic. Such a great song.

0 reply
RiverJones wrote on March 24 2012, 07:45 pm

Perfect tab. I've noticed that there's also something played between 1:56 - 2:09. Is it?

e------------------
B------------------
G------------12--
D-------14------- x4 (loop then rest for eight then the interlude?
A--12------------
E------------------

0 reply
RiverJones wrote on March 24 2012, 07:46 pm

Perfect tab. I've noticed that there's also something played between 1:56 - 2:09. Is it?

e------------------
B------------------
G------------12--
D-------14------- x4 (loop then rest for eight then the interlude?
A--12------------
E------------------

I want to post or [tab]
guest
You may want to rate the tab now too:
select rating
Please do not post tabs as comments. Select "correction" instead!