Oops, an error
Loading. Please wait.

Time Columns - Hundred Flowers Tab

212 views 1 this week
no commentswrite comment
1 2 3 4 5
please rate
add to favorites
launch autoscroll
font size
0
reset
how to read this tab
guitar tuner
Autoscroll
slow
fast
+/-
esc
set tempo
stop
Help us to improve Ultimate-Guitar.com Take our survey!
×
Author
Difficulty
TCKenny 82
advanced
-------------------------------------------------------------------------------
                             HUNDRED FLOWERS - Time Columns
-------------------------------------------------------------------------------
Tabbed by: Kenny Eaton
Email: timecolumns@gmail.com
Listen to Time Columns at http://www.myspace.com/timecolumns
Sunriseinthesea EP 2010

Tuning: Standard (EADGBe)


INTRO
Part I 0:00-0:05 (Guitars in 5/8, Drums in 4/4)

e|--------------------------------------------------------------------------|
B|--------------------------------------------------------------------------|
G|---14-14--14-14--14-14--14-14---9--9---9--9--10-10--10-10-----------------|
D|---12-12--12-12--12-12--12-12--10-10--10-10--12-12--12-12-----------------|
A|---13-13--13-13--13-13--13-13---8--8---8--8--10-10--10-10-----------------|
E|--------------------------------------------------------------------------|


0:05-0:10 (Two bars of 5/8, one bar of 6/8, one bar of 3/8, one bar of 2/8) (which 
16/8 which equals a heavily syncopated 4/4)
e|--------------------------------------------------------------------------|
B|--------------------------------------------------------------------------|
G|---7-7--7-7---7-7--7--7-7-7--7--7-7-7-7--XX-------------------------------|
D|---7-7--7-7---7-7--7--7-7-7--7--7-7-7-7--XX-------------------------------|
A|---5-5--5-5---5-5--5--5-5-5--5--5-5-5-5--XX-------------------------------|
E|---5-5--5-5---5-5--5--5-5-5--5--5-5-5-5--XX-------------------------------|

0:11-0:29 (Distortion)
The rhythm is still focused on 5 but messes around between 2-3 and 3-2 groupings. Here 
the order for the following section.
(1) four bars of (2-3)
(2) (2-3) (3-3) (2-2)(3-2)(3-3)(2-2)(3-3)(2-2)
(3) one bar of 4/4
(4) 4 bars of 6/8 with fills
(5) 7 bars of 6/8
(6) ends with two bars of 10/8 (3-3-2-2), the last bar is all rests except on the last downbeat


e|-----------------------------------------------------------|
B|-----------------------------------------------------------|
G|---14-14--14-14--14-14--14-14---9--9---9---9---9--9--9---9-|
D|---12-12--12-12--12-12--12-12--10-10--10--10--10-10-10--10-|
A|---13-13--13-13--13-13--13-13---8--8---8---8---8--8--8---8-|
E|-----------------------------------------------------------|

e|----------------------------------------------|
B|----------------------------------------------|
G|--10--10--10-10-10--10--10-10-7777777777777777|
D|--12--12--12-12-12--12--12-12-7777777777777777|
A|--10--10--10-10-10--10--10-10-5555555555555555|
E|------------------------------5555555555555555|

e|-----------(5)------------13--13--13\-----------------------------|
B|-----------(5)--------------17--17--------------------------------|
G|--77--7--7-(5)---77--7--7------------77--7--7-(7)---77--7--7-10---|
D|--77--7--7-(5)---77--7--7------------77--7--7-(7)---77--7--7-10---|
A|--55--5--5-(5)---55--5--5------------55--5--5-(7)---55--5--5--8---|
E|--55--5--5-(5)---55--5--5------------55--5--5-(7)---55--5--5--8---|

e|--17---------3---------------------------------------|
B|------------------6----------------------------------|
G|--14------------------17----17----14----17----14-----|
D|--12---------2----3---14------14----14----14----14---|
A|--13---------3----5---15--------15----15----15----15-|
E|-------------1----3----------------------------------|


e|------------------------|
B|------------------------|
G|---7--7--7-7-7-------7--|
D|---7--7--7-7-7-------7--|
A|---5--5--5-5-5-------5--|
E|---5--5--5-5-5-------5--|

VERSE (Brisk 3/8)

Loop 1 - 0:44
e|-------------|
B|-------------|
G|-------------|
D|-----14----12|
A|-------------|
E|--10---10----|

Loop 2 (Overdub) - 0:47

e|---------------------|
B|---------------------|
G|---14--------14------|
D|--------15--------15-|
A|---12--------12------|
E|--------13--------13-|

Loop 3 (Overdub) - 0:51

e|------------------|
B|------------------|
G|------------------|
D|-------14------12-|
A|-----12-----------|
E|--10-----10-13----|

Tapping Section I - 0:55 (Play each twice) (All right hand)

e|--15----------------------15----------------------------|
B|-------15-----------------------15----------------------|
G|----14-----14--14--14--14---14------14--14--14--14--14--|
D|--------------------------------------------------------|
A|--------------------------------------------------------|
E|--------------------------------------------------------|

e|---17-17-----------------------17-17-----------------------|
B|-----------------18-18-----------------------18-18---------|
G|----------17-17---------17-17---------17-17---------17-17--|
D|-----------------------------------------------------------|
A|-----------------------------------------------------------|
E|-----------------------------------------------------------|

Tapping Section II - 1:10 (Play each twice) (New notes played by left hand)

e|--15------------------------15------------------------|
B|---------15------------------------15-----------------|
G|----12h14----14--14--14--14---12h14----14--14--14--14-|
D|-----------12--12--12--12------------12--12--12--12---|
A|------------------------------------------------------|
E|------------------------------------------------------|

e|---17-17---------------------------17-17---------------------------|
B|-------------------18-18---------------------------18-18-----------|
G|---------12-17-17-------12-17-17---------12-17-17-------12-17-17---|
D|-----------------15--------------15--------------15-------------15-|
A|-------------------------------------------------------------------|
E|-------------------------------------------------------------------|


TAPPING INTERLUDE
1:25 (10/8)

I - (Play twice)
e|------------------------------------------|
B|------------------------------------------|
G|----14p10----17p10-----14p10--------------|
D|----------12-------12-------12-15p10h12---|
A|------------------------------------------|
E|------------------------------------------|

II - (Play twice)
e|--------------------------------|
B|--------------------------------|
G|----14p7---17p7---14p7----------|
D|---------8------8-----8-15p7h8--|
A|--------------------------------|
E|--------------------------------|

III - (Play twice)
e|--------------------------------|
B|--------------------------------|
G|----14p2---17p2---14p2----------|
D|---------3------3-----3-15p2h3--|
A|--------------------------------|
E|--------------------------------|

IV - (Play twice)
e|--------------------------------|
B|--------------------------------|
G|----14p3---17p3---14p3----------|
D|---------5------5-----5-15p3h5--|
A|--------------------------------|
E|--------------------------------|

Repeat tapping Interlude parts I, II and III, then play

e|---------------------------------------------------|
B|---------------------------------------------------|
G|-----14--17--14-------------------10--14--10-------|
D|----------------15---------------------------12----|
A|---------------------------------------------------|
E|---------------------------------------------------|


Loop Breakdown (1:52) (10/8 + 10/4 + 10/8)

e|-------------------------------------------|
B|-------------------------------------------|
G|---7--7--7-7-7-7-7-7-7-7-7-7-7-7-7--7--7-7-|
D|---7--7--7-7-7-7-7-7-7-7-7-7-7-7-7--7--7-7-|
A|---5--5--5-5-5-5-5-5-5-5-5-5-5-5-5--5--5-5-|
E|---5--5--5-5-5-5-5-5-5-5-5-5-5-5-5--5--5-5-|


Half Speed Loop Enters at (1:57)


Guitar Solo I (Maintain two previous loops) (10/8 + 10/8 + 10/4) (2:14)
REPEAT THIS SECTION ONCE

e|-------------------------------------------|
B|-------------------------------------------|
G|---10-----9--------------------------------|
D|------12---10---10---10--------------------|
A|-------------12----12---8--8--8--8--8------|
E|-------------------------12-12-12-12-12----|

e|----------------------13---------------1717-------------------------------|
B|------------------17----1717---------------1717----17---------------------|
G|---10----9---/14----14------14-17141417--------1919-----------------------|
D|------12--10----15--------------------------------------------------------|
A|--------------------------------------------------------------------------|
E|--------------------------------------------------------------------------|


Guitar Solo II (Guitar in 4/4 and loops in 10/8 + 10/4 + 10/8) (2:39)
REPEAT THIS SECTION ONCE

e|---13131313131313131313131313131313------|
B|---10101010101010101010101010101010------|
G|---10101010101010101010101010101010------|
D|-----------------------------------------|
A|-----------------------------------------|
E|-----------------------------------------|

e|-----------------------------------------|
B|---13131313131313131313131313131313------|
G|---10101010101010101010101010101010------|
D|---10101010101010101010101010101010------|
A|-----------------------------------------|
E|-----------------------------------------|

e|--------------------------------------------------------------------------|
B|---1010101010101010101010101010101010101010101010101010101010101010-------|
G|----7-7-7-7-7-7-7-7-7-7-7-7-7-7-7-7-7-7-7-7-7-7-7-7-7-7-7-7-7-7-7-7-------|
D|----7-7-7-7-7-7-7-7-7-7-7-7-7-7-7-7-7-7-7-7-7-7-7-7-7-7-7-7-7-7-7-7-------|
A|--------------------------------------------------------------------------|
E|--------------------------------------------------------------------------|

e|---13131313131313131313131313131313------|
B|---10101010101010101010101010101010------|
G|---10101010101010101010101010101010------|
D|-----------------------------------------|
A|-----------------------------------------|
E|-----------------------------------------|

e|---15151515151515151515151515151515------|
B|---13131313131313131313131313131313------|
G|---12121212121212121212121212121212------|
D|-----------------------------------------|
A|-----------------------------------------|
E|-----------------------------------------|

e|---1717171717171717171717171717171717171717171717171717171717171717------|
B|---1515151515151515151515151515151515151515151515151515151515151515------|
G|---1414141414141414141414141414141414141414141414141414141414141414------|
D|-------------------------------------------------------------------------|
A|-------------------------------------------------------------------------|
E|-------------------------------------------------------------------------|


Outro (Free Time) (3:20)

e|----------------------------------------------|
B|---5-----------------5------------------------|
G|---5----5-----------5--------5----------------|
D|---3----7----7-----3-------7--7-----5-7-------|
A|---5----8----5----5---------8------5----5~----|
E|--------6----3------------6-------3-----------|


************************************

| /   slide up
| \   slide down
| h   hammer-on
| p   pull-off
| ~   vibrato
| +   harmonic
| x   Mute note
| b   Bend
| pb  Pre-bend
| br  Bend release
| pbr Pre-bend release
| brb Bend release bend

************************************
Suggest correction
What's this?
You can suggest a correction to this tab. Community and Mods will review your correction and vote to approve or reject it.
comments
We did not receive enough feedback on this tab! Please rate:
print report bad tab
1 2 3 4 5
guest
You may want to rate the tab now too:
select rating
Please do not post tabs as comments. Select "correction" instead!