Oops, an error
Loading. Please wait.

Time Columns - Spring Tab

424 views 1 this week
no commentswrite comment
1 2 3 4 5
please rate
add to favorites
launch autoscroll
font size
0
reset
how to read this tab
guitar tuner
Autoscroll
slow
fast
+/-
esc
set tempo
stop
Help us to improve Ultimate-Guitar.com Take our survey!
×
Contributor
Difficulty
TCKenny 82
advanced
-------------------------------------------------------------------------------
     SPRING - Time Columns
-------------------------------------------------------------------------------
Tabbed by: Kenny Eaton
Email: timecolumns@gmail.com
http://www.myspace.com/timecolumns

Tuning: Standard (EADGBe)


Intro 0:00-0:21 (Brisk 7/8) (Repeat 4 times)

e|---------------------------------------------------------------------------|
B|---------------------------------------------------------------------------|
G|-------------14-----------9-----------11-----------------------------------|
D|----------11----11-----11---11-----11----11-----11-9-11--------------------|
A|---------9--9--9------9--9-9------9--9--9------9--9-9----------------------|
E|-----0h10---------0h10--------0h10---------0h10----------------------------|

Intro Ending Lick 0:21-0:26 (Palm Mute)

e|---------------------------------------------------------------------------|
B|---------------------------------------------------------------------------|
G|------------------9------------11\-----------------------------------------|
D|-----------11-----------11-------------------------------------------------|
A|----------9---9--9--9--9---9--9--------------------------------------------|
E|--------10-----10----10-----10---------------------------------------------|


VERSE
(First Loop) 0:26-37 (Repeat 8 times)

e|---------------------------------------------------------------------------|
B|---------------------------------------------------------------------------|
G|---------------------------------------------------------------------------|
D|----------------7----------------------------------------------------------|
A|----------5-----------5----------------------------------------------------|
E|-----0h7-----7-----7-------------------------------------------------------|

(With First Loop Playing Back) 0:37-48 (Repeat 8 times)

e|---------------------------------------------------------------------------|
B|---------------------------------------------------------------------------|
G|---------------------------------------------------------------------------|
D|------------------11-------------------------------------------------------|
A|-----------9--------------9------------------------------------------------|
E|-----0h10-----10------10---------------------------------------------------|

(With First Loop Playing Back) 0:48-57 (Repeat 8 times)
e|---------------------------------------------------------------------------|
B|---------------------------------------------------------------------------|
G|---------------------------------------------------------------------------|
D|-------------------19------------------------------------------------------|
A|-----------17--------------17----------------------------------------------|
E|-----0h19------19------19--------------------------------------------------|

(With First Loop Playing Back) 0:57-1:08 (Repeat 8 times)
e|---------------------------------------------------------------------------|
B|---------------------------------------------------------------------------|
G|---------------------------------------------------------------------------|
D|-------------------16------------------------------------------------------|
A|-----------17--------------17----------------------------------------------|
E|-----0h15------15------15--------------------------------------------------|



INTERLUDE
1:08-1:18 (Drums in 7/4, Guitar and Loop in 7/8) (Repeat 8 times)

e|---------------------------------------------------------------------------|
B|----10--12-----------------------------------------------------------------|
G|---------------------------------------------------------------------------|
D|---------------------------------------------------------------------------|
A|---------------------------------------------------------------------------|
E|---------------------------------------------------------------------------|

1:18-1:29  (Play twice)

e|------------10-----------10-----------14-----------14----------------------|
B|----10--12-------10--12-------10--12-------10--12--------------------------|
G|---------------------------------------------------------------------------|
D|---------------------------------------------------------------------------|
A|---------------------------------------------------------------------------|
E|---------------------------------------------------------------------------|

1:29-1:39  (Play twice)

e|-----------14--10-------14--10-14-----17--14-14-----17--14-----------------|
B|----10-12---------10-12-----------15------------15-------------------------|
G|---------------------------------------------------------------------------|
D|---------------------------------------------------------------------------|
A|---------------------------------------------------------------------------|
E|---------------------------------------------------------------------------|

1:39-1:50  (Play four times)

e|-----------14--10-14-----17--14--------------------------------------------|
B|----10-12------------15----------------------------------------------------|
G|---------------------------------------------------------------------------|
D|---------------------------------------------------------------------------|
A|---------------------------------------------------------------------------|
E|---------------------------------------------------------------------------|


BRIDGE
1:50-2:26 (Guitars in 3/4, Loop in 7/8) (Play twice)

e|---------------------------------------------------------------------------|
B|---------------------------------------------------------------------------|
G|------------14----------14----------14---------14--------------------------|
D|--------12----------12----------12---------12------------------------------|
A|----14----------14----------14---------14----------------------------------|
E|---------------------------------------------------------------------------|

e|---------------------------------------------------------------------------|
B|---------------------------------------------------------------------------|
G|----11----------11----------11----------11---------------------------------|
D|--------12----------12----------12----------12-----------------------------|
A|------------10----------10----------10----------10-------------------------|
E|---------------------------------------------------------------------------|

e|---------------------------------------------------------------------------|
B|---------------------------------------------------------------------------|
G|---------------------------------------------------------------------------|
D|--------12----------12----------12----------12-----------------------------|
A|----10----------10----------10----------10---------------------------------|
E|------------12----------12----------12----------12-------------------------|

e|---------------------------------------------------------------------------|
B|---------------------------------------------------------------------------|
G|---------------------------------------------------------------------------|
D|--------12----------12----------12----------12-----------------------------|
A|----10----------10----------10----------10---------------------------------|
E|------------12----------12----------12----------12-------------------------|

OUTRO
2:26-End (Guitars in 9/8) (Groupings of 3+2+2+2)

e|---------------------------------------------------------------------------|
B|---------------------------------------------------------------------------|
G|----------14---------14--------14---------14-------------------------------|
D|-------12--------12---------12--------12-----------------------------------|
A|----14-------14----------14-------14---------------------------------------|
E|---------------------------------------------------------------------------|

e|---------------------------------------------------------------------------|
B|---------------------------------------------------------------------------|
G|-----11-------11----------11-------11--------------------------------------|
D|--------12--------12---------12--------12----------------------------------|
A|-----------10---------10--------10---------10------------------------------|
E|---------------------------------------------------------------------------|

e|---------------------------------------------------------------------------|
B|---------------------------------------------------------------------------|
G|---------------------------------------------------------------------------|
D|--------12------------12-----12------------12------------------------------|
A|-----10----10-----10------10----10-----10----------------------------------|
E|--------------12-------------------12--------------------------------------|

e|---------------------------------------------------------------------------|
B|---------------------------------------------------------------------------|
G|---------------------------------------------------------------------------|
D|--------12------------12-----12------------12------------------------------|
A|-----10----10-----10------10----10-----10----------------------------------|
E|--------------12-------------------12--------------------------------------|



Listen to Time Columns at http://www.myspace.com/timecolumns



************************************

| /   slide up
| \   slide down
| h   hammer-on
| p   pull-off
| ~   vibrato
| +   harmonic
| x   Mute note
| b   Bend
| pb  Pre-bend
| br  Bend release
| pbr Pre-bend release
| brb Bend release bend

************************************
Suggest correction new What's this?
You can suggest a correction to this tab. Community and Mods will review your correction and vote to approve or reject it.
comments
We did not receive enough feedback on this tab! Please rate:
print report bad tab
1 2 3 4 5
guest
You may want to rate the tab now too:
select rating
Please do not post tabs as comments. Select "correction" instead!