Oops, an error
Loading. Please wait.

Time Columns - Summer Tab

340 views 1 this week
no commentswrite comment
1 2 3 4 5
1 last vote to show rating
add to favorites
launch autoscroll
font size
0
reset
how to read this tab
guitar tuner
Autoscroll
slow
fast
+/-
esc
set tempo
stop
Help us to improve Ultimate-Guitar.com Take our survey!
×
Author
Difficulty
advanced
-------------------------------------------------------------------------------
                             SUMMER - Time Columns
-------------------------------------------------------------------------------
Tabbed by: Kenny Eaton
Email: timecolumns@gmail.com
Listen to Time Columns at http://www.myspace.com/timecolumns


Tuning: Standard (EADGBe)


INTRO (0:00-0:44)
Lots of reverb and delay

e|---------------------------------------------------------------------------|
B|---------------------------------------------------------------------------|
G|-------19-16------14------19----19-16------14--16------14--16--------------|
D|-----14-------17--------14----14-------17----------17----------17--14------|
A|---15-----------------15----15---------------------------------------------|
E|---------------------------------------------------------------------------|

e|---------------------------------------------------------------------------|
B|---------------------------------------------------------------------------|
G|-------12-14------12------12----12-14------12--14------12--14------12------|
D|-----10-------14--------10----10-------14----------14----------14----------|
A|---12-----------------12----12---------------------------------------------|
E|---------------------------------------------------------------------------|


(0:44-1:32) INTRO RIFF PART II

e|-----------------------------------------------------|
B|-----------------------------------------------------|
G|------7p0-----------------------7p0------------------|
D|-----9-----------------12------9---------------------| x8
A|----7-----12-14--9h10p9-------7-----12-14--9h10-5----|
E|---0-----0--0--00--------0h5h7-----0--0--00----0-----|

LOOP #1, PART 1 (1:32-1:38)

e|---------------|
B|---------------|
G|---7--7--7-----|
D|----5--5--5----|
A|-----7--7------|
E|---------------|

(1:38-1:44)

e|--------------------------------|
B|--------------------------------|
G|------11---11------11---11------|
D|-----9----9--9--9----9----9-----|
A|---10---10----10-10---10---10---|
E|--------------------------------|


(1:44) OVERDUB ON LOOP #1

e|-------------------|
B|-------------------|
G|---11---11---11----|
D|-----9----9----9---|
A|------10---10------|
E|-------------------|

(1:56) VERSE RIFF #1

e|--------------------------------------------------------|
B|--------------------------------------------------19----|
G|--------------------------19------------------------19--|
D|-----------16--------16--------------16--------16-------| x2
A|------14--------14------14------14--------14------------|
E|---15----15---15---15--------15----15---15---15---------|

(2:08-2:20) HALF-TIME / 12/8 SECTION (DISTORTION)

e|-------------14-----------10-------------14-----------------|
B|---------1515--0------1212-----------1515--------------17---|
G|-------12-----------11-----------------------------1616-----|
D|-----16-----------12-----------161214--------1412-----------| x2
A|---14-----------14-----------14------------14----14---------|
E|------------------------------------------------------------|


(2:20) VERSE RIFF #1 (DISTORTION)

e|--------------------------------------------------------|
B|--------------------------------------------------19----|
G|--------------------------19------------------------19--|
D|-----------16--------16--------------16--------16-------| x1
A|------14--------14------14------14--------14------------|
E|---15----15---15---15--------15----15---15---15---------|

(2:26-2:38) HALF-TIME / 12/8 SECTION AGAIN (DISTORTION)

e|-------------14-----------10-------------14-----------------|
B|---------1515--0------1212-----------1515--------------17---|
G|-------12-----------11-----------------------------1616-----|
D|-----16-----------12-----------161214--------1412-----------| x2
A|---14-----------14-----------14------------14----14---------|
E|------------------------------------------------------------|


(2:38-3:02) VERSE MAIN MELODY (CLEAN)

e|---------------------------------------|
B|-------------------------------19------|
G|---------19--------------14------19----|
D|---16------16--14--16------16----------| x8
A|-----14------14--14--14------14--------|
E|-------15--------------15--------------|

(3:02-3:20) HALF SPEED BREAKDOWN
I use the gibson echoplex as my main looper, which has a half speed function that slows
your loop to half its speed and drops it an octave. Once you have it in half speed, let
repeat four times before you go into the syncopated hits.

At this point, if your loop pedal has a "start from beginning" function, hit that on
to get a stutter effect going. I'm sure you could get the same effect with a Line 6 DL4
pedal. But in all reality, the Gibson Echoplex is by far the best looper on the market. 
of functions and spot on quantization.

After that section, return the loop to normal speed/octave. Anyways... On with the song...


(3:26) OVERDUB #2
e|-------------------------------|
B|-------------------------------|
G|---14----------14--------------|
D|------12----12----12----12-----| x2
A|---------14----------14--------|
E|-------------------------------|


(3:32-3:56) UPBEAT HITS (NO MORE OVERDUBS)
Play all of these notes on the upbeats in time with the loop so that a constant eighth
pulse is playing between these lines and overdub #2.

e|-----------------------------------------------------|
B|----14----------14----------19----16----19----16-----|
G|-------12----12----12----12----17----19----17----19--|
D|----------14----------14-----------------------------|
A|-----------------------------------------------------|
E|-----------------------------------------------------|

e|-----------------------------------------------------|
B|-----------------------------------------------------|
G|---11----------11----------14----------14------------|
D|------12----12----12----12----12----12----12----12---| x2
A|---------10----------10----------14----------14------|
E|-----------------------------------------------------|


(3:56-4:44) OUTRO
For the first repetition, make sure the loops are muted. Keep an eye on the midi clock
from your looper to stay in time with the muted loops. After you finish the first cycle,
the mute off and all your loops should come back on in time with your live guitar.

e|-------------------------------------------------------------------|
B|-------------------------------------------------------------------|
G|-------------------------------------------------------------------|
D|---12----12----12----12----12-----12----12----12----12----12-------|
A|-----10-----9-----7-----7-----7------7-----9----10----10----10-----|
E|-------12----10-----8-----8-----8------8----10----12----12----12---|

e|-------------------------------------------------------------------|
B|-------------------------------------------------------------------|
G|---12-----12----12----12----12-----12----12---12----12----12-------|
D|-------------------------------------------------------------------|
A|-----10-----9-----7-----7-----7------7-----9----10----10----10-----|
E|-------12----10-----8-----8-----8------8----10----12----12----12---|

e|-------------------------------------------------------------------|
B|-------------------------------------------------------------------|
G|-------------------------------------------------------------------|
D|---9------9-----9-----9-----9------9-----9----9-----9-----9--------|
A|-----10-----9-----7-----7-----7------7-----9----10----10----10-----|
E|-------12----10-----8-----8-----8------8----10----12----12----12---|

e|-------------------------------------------------------------------|
B|-------------------------------------------------------------------|
G|---9------9-----9-----9-----9------9-----9----9-----9-----9--------|
D|-------------------------------------------------------------------| x2
A|-----10-----9-----7-----7-----7------7-----9----10----10----10-----|
E|-------12----10-----8-----8-----8------8----10----12----12----12---|

(4:44-End)
Strum the above chords instead of arpeggiating them. The first repetition is in a
3-3-3-3-4 rhythm (i.e. 123,123,123,123,1234). After that, just strum constant eighth notes.
distortion to separate your mix from the loops!

Thanks! Have an awesome summer! :)

Listen to Time Columns at: http://www.myspace.com/timecolumns

************************************

| /   slide up
| \   slide down
| h   hammer-on
| p   pull-off
| ~   vibrato
| +   harmonic
| x   Mute note
| b   Bend
| pb  Pre-bend
| br  Bend release
| pbr Pre-bend release
| brb Bend release bend

************************************
Suggest correction
Give kudos to tab author, rate the tab!
1 2 3 4 5
comments
print report bad tab
guest
You may want to rate the tab now too:
select rating
Wanna post a correction for this tab? Suggest correction