Oops, an error
Loading. Please wait.

Timothy Little - Burnout Tab

38 views 1 this week
no commentswrite comment
1 2 3 4 5
please rate
add to favorites
launch autoscroll
font size
0
reset
how to read this tab
guitar tuner
Autoscroll
slow
fast
+/-
esc
set tempo
stop
Help us to improve Ultimate-Guitar.com Take our survey!
×
Contributor
Difficulty
Tuning
intermediate
C# G# C# F# A# D#
Song: Burnout
Composer: Timothy Little
Tuning: (6[C#](5[G#](4[C#](3[F#](2[A#](1[D#]

Key:
*    = Palm Mute
(')  = Scratch
b    = Bend
br   = Bend Return
sbr  = Slow Bend Return
/    = Fast Playing
s    = Slide
~    = Let It Ring
qrbr = Quick Repeated Bend Return
sqs  = Super Quick Slide

INTRO
Bass Intro: C#|-8-7-0-5-7-0-0/0/0/0-0-|

Continued:  C#|-8-7-0-5-7-0-3/3/3-1b2~-|

Then

Guitar I
D#|------------------------------------|
A#|------------------------------------|
F#|------------------------------------|
C#|--8-7-0-5-7-0-10/10/10/10-12/12-13--|
G#|------------------------------------|
C#|------------------------------------|

D#|-------------------------------------|
A#|-------------------------------------|
F#|-------------------------------------|
C#|--8-7-0-5-7-0-10/10/10-(9)(9)(9)(9)--|
G#|-------------------------------------|
C#|-------------------------------------| x2

Then
D#|-------------------------------------|
A#|-------------------------------------|
F#|-------------------------------------|
C#|--8-7-0-5-7-0-10/10/10/10sqs15sbr17--|
G#|-------------------------------------|
C#|-------------------------------------|

Guitar II
D#|-----------------------------|
A#|-----------------------------|
F#|-----------------------------|
C#|--8-7-0-5-7-0-0/0/0/0-0-0-0--|
G#|--8-7-0-5-7-0-0/0/0/0-0-0-0--|
C#|--8-7-0-5-7-0-0/0/0/0-0-0-0--|
                 * * * *
D#|------------------------------|
A#|------------------------------|
F#|------------------------------|
C#|--8-7-0-5-7-0--3-3/3/3-1/1-1--|
G#|--8-7-0-5-7-0--3-3/3/3-1/1-1--|
C#|--8-7-0-5-7-0--3-3/3/3-1/1-1--| x2
                  * * * * * *
Then
D#|---------------------------|
A#|---------------------------|
F#|---------------------------|
C#|--8-7-0-5-7-0--0/0/0/0-1~~-|
G#|--8-7-0-5-7-0--0/0/0/0-1~~-|
C#|--8-7-0-5-7-0--0/0/0/0-1~~-|
                  * * * *
VERSE
Guitar 1
D#|----------------------------|
A#|----------------------------|
F#|----------------------------|
C#|---------------8------------|
G#|--------7-8-10---8-7-5-7----|
C#|--0-7-8------------------8--| x3
     * * * * * *  * * * * * *

Guitar II
D#|----------------------------|
A#|----------------------------|
F#|----------------------------|
C#|----------------------------|
G#|--0-7-8-7-8-10-8-7-5-3-5-1--|
C#|--0-7-8-7-8-10-8-7-5-3-5-1--| x2
     * * * * * *  * * * * * *

PRE-CHORUS
Guitar I
D#|------------------------|
A#|------------------------|
F#|------------------------|
C#|--12-15-17-22/22-19h20--|
G#|------------------------|
C#|------------------------| 1st & 3rd time

D#|------------------------|
A#|------------------------|
F#|--------------------19~-|
C#|--12-15-17-22/22-19/----|
G#|------------------------|
C#|------------------------| 2cnd time

D#|---------------------------------------------|
A#|--------------------v--------sliding------v--|
F#|--------------------19/20/19/20/19/20/19/20~-|
C#|--12-15-17-22/22-19/-------------------------|
G#|---------------------------------------------|
C#|---------------------------------------------| 4th time

Guitar II
D#|----------------------|
A#|----------------------|
F#|----------------------|
C#|--0--3--5--10/10-7s8--|
G#|--0--3--5--10/10-7s8--|
C#|--0--3--5--10/10-7s8--| x2

Then
D#|--------------------------|
A#|--------------------------|
F#|--------------------------|
C#|--0--3--5--10/10-7-7s8s7--|
G#|--0--3--5--10/10-7-7s8s7--|
C#|--0--3--5--10/10-7-7s8s7--| x2

D#|--------------------------|
A#|--------------------------|
F#|--------------------------|
C#|--0--3--5--10/-7-7s8s7s8~-|
G#|--0--3--5--10/-7-7s8s7s8~-|
C#|--0--3--5--10/-7-7s8s7s8~-|

CHORUS

Guitar I
D#|---------------------------------|
A#|---------------------------------|
F#|-------------8~~~~---------------|
C#|--0--0(0)(0)-x-----5--555-4-3-2--|
G#|--0--0(0)(0)(6)----5--555-4-3-2--|
C#|--0--0(0)(0)-------5--555-4-3-2--| x2

Then
D#|-------------------------------------------|
A#|-------------------------------------------|
F#|------------8~~~~--------------------------|
C#|--0--0~~~~~~------5-55-444-333-222-1~qrbr--|
G#|-------------------------------------------|
C#|-------------------------------------------|

Guitar II
D#|---------------------------------|
A#|---------------------------------|
F#|---------------------------------|
C#|--0--0(0)(0)-------5--555-4-3-2--|
G#|--0--0(0)(0)-6-----5--555-4-3-2--|
C#|--0--0(0)(0)-6-----5--555-4-3-2--| x2

Then
D#|----------------------------------------|
A#|----------------------------------------|
F#|-------------8~~~~----------------------|
C#|--0--0(0)(0)-x-----5-55-444-333-222-0~~-|
G#|--0--0(0)(0)-6~~~~-5-55-444-333-222-0~~-|
C#|--0--0(0)(0)-------5-55-444-333-222-0~~-|

BRIDGE

Guitar I
D#|--------------------------|            }
A#|--------------------------|            }
F#|-------------6/6/6-8s9s8--|            })
C#|-------------x/x/x-xsxsx--|            })
G#|-------------4/4/4-6s7s6--|            })] Repeat twice,
C#|--------------------------| x3         })] then go to
                                          })] 'BRIDGE END'
Then                                      })] On repeat, play
D#|------------------------------------|  })] each twice
A#|------------------------------------|  })] instead of x3 & x1
F#|-------------6/6/6-8s9s8sqs14~~~~~--|  })
C#|-------------x/x/x-xsxsxsqsx--------|  })
G#|-------------4/4/4-6s7s7sqs12~~~~~--|  }
C#|------------------------------------|  }


Guitar II
D#|--------------------------|        }
A#|--------------------------|        }
F#|--------------------------|        })
C#|--0--0-0-0-1--------------|        })
G#|--0--0-0-0-1--------------|        })] Repeat twice,
C#|--0--0-0-0-1--------------| x3     })] then go to
     *  * * * *                       })] 'BRIDGE END'
Then                                  })] On repeat, play
D#|-------------------|               })] each twice
A#|-------------------|               })] instead of x3 & x1
F#|-------------------|               })
C#|--0--0-0-0-0~~~~~--|               })
G#|--0--0-0-0-12~~~~--|               }
C#|--0--0-0-0-0~~~~~--|               }
     *  * * *

BRIDGE END (I have yet to write the BRIDGE END, SOLO, or OUTRO)
Suggest correction new What's this?
You can suggest a correction to this tab. Community and Mods will review your correction and vote to approve or reject it.
comments
We did not receive enough feedback on this tab! Please rate:
print report bad tab
1 2 3 4 5
guest
You may want to rate the tab now too:
select rating
Please do not post tabs as comments. Select "correction" instead!