Oops, an error
Loading. Please wait.

Timothy Michael Wynn - For Mother Russia Tab

2,661 views 6 this week
2 commentsread comments
1 2 3 4 5
please rate
add to favorites
launch autoscroll
font size
0
reset
how to read this tab
guitar tuner
Tab Pro tools
  • play this tab
  • loop segment
  • change instrument
  • show fretboard
  • metronome
×
Best way to learn
"Timothy Michael Wynn - For Mother Russia"
Autoscroll
slow
fast
+/-
esc
set tempo
stop
Contributor
To UG community: Here's FOR MOTHER RUSSIA by Timothy Michael Wynn
from the Red Alert 3 OST. Special thanks to ollie044 for giving
me GTR 2's background solo at B13-B16.

 x = palm mute
 + = dead note (mute with left hand)
 ~ = vibrato
 / = slide up
 \ = slide down

~~~~~~~~~~~~~~~~~~~~~~~~~~~~~~~~~~~~~~~~~~~~~~~~~~~~~~~~~~~~~~~~~~~~~~~~~~~~~~~~~~~~

RED ALERT 3 OST
TIMOTHY MICHAEL WYNN

FOR MOTHER RUSSIA

TUNING: GTR1 - DROP D (DADGBE)    GTR2 - STANDARD


    GTR 1
1             1   -   2   -   3   -   4   -   
e|||------------------------------------------|--------------------------------|
B|||----------------HOLD 4BARS...-------------|--------------------------------|
G|||------------------------------------------|--------------------------------|
D|||----------0-------------------------------|--------------------------------|
A|||----------0-------------------------------|--------------------------------|
D|||----------0-------------------------------|--------------------------------|

  |--------------------------------|--------------------------------||
  |--------------------------------|--------------------------------||
  |--------------------------------|--------------------------------||
  |--------------------------------|--------------------------------||
  |--------------------------------|--------------------------------||
  |--------------------------------|--------------------------------||

5  1   -   2   -   3   -   4   -    1   -   2   -   3   -   4   -   
 ||--------------------------------|--------------------------------|
 ||--------------------------------|--------------------------------|
 ||--------------------------------|--------------------------------|
 ||0x0x0x0x0x--------------3-------|0x0x0x0x0x--------------6-------|
 ||0x0x0x0x0x--------------3-------|0x0x0x0x0x--------------6-------|
 ||0x0x0x0x0x--------------3-------|0x0x0x0x0x--------------6-------|

  |--------------------------------|--------------------------------||
  |--------------------------------|--------------------------------||
  |--------------------------------|--------------------------------||
  |0x0x0x0x0x--------------3-------|0x0x0x0x0x----------5---6-6-----||
  |0x0x0x0x0x--------------3-------|0x0x0x0x0x----------5---6-6-----||
  |0x0x0x0x0x--------------3-------|0x0x0x0x0x----------5---6-6-----||

9
 ||--------------------------------|--------------------------------|
 ||--------------------------------|--------------------------------|
 ||--------------------------------|--------------------------------|
 ||0x0x0x0x0x--0x0x3---3---5---5---|0x0x0x0x0x--0x0x3---5---6-------|
 ||0x0x0x0x0x--0x0x3---3---5---5---|0x0x0x0x0x--0x0x3---5---6-------|
 ||0x0x0x0x0x--0x0x3---3---5---5---|0x0x0x0x0x--0x0x3---5---6-------|

  |--------------------------------|--------------------------------||
  |--------------------------------|--------------------------------||
  |--------------------------------|--------------------------------||
  |0x0x0x0x0x--0x0x3---3---5---5---|0x0x0x0x0x--0x0x6---6---5-------||
  |0x0x0x0x0x--0x0x3---3---5---5---|0x0x0x0x0x--0x0x6---6---5-------||
  |0x0x0x0x0x--0x0x3---3---5---5---|0x0x0x0x0x--0x0x6---6---5-------||

13 1   -   2   -   3   -   4   -    1   -   2   -   3   -   4   -
 ||--------------------------------|--------------------------------|
 ||--------------------------------|--------------------------------|
 ||--------------------------------|--------------------------------|
 ||0x0x0x0x0x--0x0x3---3---5---5---|0x0x0x0x0x--0x0x3---5---6-------|
 ||0x0x0x0x0x--0x0x3---3---5---5---|0x0x0x0x0x--0x0x3---5---6-------|
 ||0x0x0x0x0x--0x0x3---3---5---5---|0x0x0x0x0x--0x0x3---5---6-------|
 ||                                                                 |
 ||GTR 2                                                            |
e||--------------------------------|--------------------------------|
B||--------------------------------|--------------------------------|
G||5/7-7-7-7---7-7-8\7-5---5~------|5/7-7-7-7---7-7-8\7-13~-13~-----|
D||+-+-+-+-+---+-+-+-+-+---+-------|+-+-+-+-+---+-+-+-+-+---+-------|
A||3/5-5-5-5---5-5-6\5-3---3~------|3/5-5-5-5---5-5-6\5-11~-11~-----|
E||--------------------------------|--------------------------------|

15
  |--------------------------------|--------------------------------||
  |--------------------------------|--------------------------------||
  |--------------------------------|--------------------------------||
  |0x0x0x0x0x--0x0x3---3---5---5---|0x0x0x0x0x--0x0x6---6---5-------||
  |0x0x0x0x0x--0x0x3---3---5---5---|0x0x0x0x0x--0x0x6---6---5-------||
  |0x0x0x0x0x--0x0x3---3---5---5---|0x0x0x0x0x--0x0x6---6---5-------||
  |
  |
  |--------------------------------|--------------------------------|
  |--------------------------------|--------------------------------|
  |5/7-7-7-7---7-7-8\7-5---5~------|5/7-7-7-7---7-7-8\7-5---5-5\\---|
  |+-+-+-+-+---+-+-+-+-+---+-------|+-+-+-+-+---+-+-+-+-+---+-+-----|
  |3/5-5-5-5---5-5-6\5-3---3~------|3/5-5-5-5---5-5-6\5-3---3-3\\---|
  |--------------------------------|--------------------------------|

17 1   -   2   -   3   -   4   -    1   -   2   -   3   -   4   -
 ||--------------------------------|--------------------------------|
 ||--------------------------------|--------------------------------|
 ||--------------------------------|--------------------------------|
 ||--------------------------------|--------------------------------|
 ||--------------------------------|--------------------------------|
 ||0---0---12------6---6-5---5-3---|0---0---12------3---3-5---5-6---|

  |--------------------------------|--------------------------------||
  |--------------------------------|--------------------------------||
  |--------------------------------|--------------------------------||
  |--------------------------------|--------------------------------||
  |--------------------------------|--------------------------------||
  |0---0---12------6---6-5---5-3---|0---0---12------3---3-5---5-6---||

21
 ||--------------------------------|--------------------------------|
 ||--------------------------------|--------------------------------|
 ||--------------------------------|--------------------------------|
 ||----------------6-----5-----3---|----------------3-----5-----6---|
 ||----------------6-----5-----3---|----------------3-----5-----6---|
 ||0---0---12------6-----5-----3---|0---0---12------3-----5-----6---|

  |--------------------------------|--------------------------------||
  |--------------------------------|--------------------------------||
  |--------------------------------|--------------------------------||
  |----------------6-----5-----3---|----------------3-----5-----6---||
  |----------------6-----5-----3---|----------------3-----5-----6---||
  |0---0---12------6-----5-----3---|0---0---12------3-----5-----6---||

25 1   -   2   -   3   -   4   -    1   -   2   -   3   -   4   -
 ||--------------------------------|--------------------------------|
 ||--------------------------------|--------------------------------|
 ||--------------------------------|--------------------------------|
 ||0x0x0x0x0x0x0x3--0x0x0x0x0x0x5--|0x0x0x0x0x0x5---0-6-------------|
 ||0x0x0x0x0x0x0x3--0x0x0x0x0x0x5--|0x0x0x0x0x0x5---0-6-------------|
 ||0x0x0x0x0x0x0x3--0x0x0x0x0x0x5--|0x0x0x0x0x0x5---0-6-------------|

  |--------------------------------|--------------------------------||
  |--------------------------------|--------------------------------||
  |--------------------------------|--------------------------------|| x2
  |0x0x0x0x0x0x0x3--0x0x0x0x0x0x5--|0x0x0x0x0x0x6---0-5-------------||
  |0x0x0x0x0x0x0x3--0x0x0x0x0x0x5--|0x0x0x0x0x0x6---0-5-------------||
  |0x0x0x0x0x0x0x3--0x0x0x0x0x0x5--|0x0x0x0x0x0x6---0-5-------------||

29  
 ||--------------------------------|--------------------------------|
 ||--------------------------------|--------------------------------|
 ||--------------------------------|--------------------------------|
 ||--------------------------------|--------------------------------|
 ||--------------------------------|--------------------------------|
 ||0---0---12------6---6-5---5-3---|0---0---12------3---3-5---5-6---|

  |--------------------------------|--------------------------------||
  |--------------------------------|--------------------------------||
  |--------------------------------|--------------------------------||
  |--------------------------------|--------------------------------||
  |--------------------------------|--------------------------------||
  |0---0---12------6---6-5---5-3---|0---0---12------3---3-5---5-6---||

33 1   -   2   -   3   -   4   -    1   -   2   -   3   -   4   -
 ||--------------------------------|--------------------------------|
 ||--------------------------------|--------------------------------|
 ||--------------------------------|--------------------------------|
 ||----------------9-----8-----6---|----------------6-----8-----9---|
 ||--------8-------9-----8-----6---|--------8-------6-----8-----9---|
 ||3---3-----------9-----8-----6---|3---3-----------6-----8-----9---|

  |--------------------------------|--------------------------------||
  |--------------------------------|--------------------------------||
  |--------------------------------|--------------------------------||
  |----------------9-----8-----6---|----------------6-----8-----9---||
  |--------8-------9-----8-----6---|--------8-------6-----8-----9---||
  |3---3-----------9-----8-----6---|3---3-----------6-----8-----9---||

37  
 ||--------------------------------|--------------------------------|
 ||--------------------------------|--------------------------------|
 ||--------------------------------|--------------------------------|
 ||0x0x0x0x0x--0x0x0x0x0x----------|0x0x0x0x0x--0x0x0x0x1-----------|
 ||0x0x0x0x0x--0x0x0x0x0x----------|0x0x0x0x0x--0x0x0x0x1-----------|
 ||0x0x0x0x0x--0x0x0x0x0x----------|0x0x0x0x0x--0x0x0x0x1-----------|

  |--------------------------------|--------------------------------|||
  |--------------------------------|--------------------------------|||
  |--------------------------------|--------------------------------|||
  |0x0x0x0x0x--0x0x0x0x0x----------|0x0x0x0x0x--0x0x0x0x3---6~------|||
  |0x0x0x0x0x--0x0x0x0x0x----------|0x0x0x0x0x--0x0x0x0x3---6~------|||
  |0x0x0x0x0x--0x0x0x0x0x----------|0x0x0x0x0x--0x0x0x0x3---6~------|||


~~~~~~~~~~~~~~~~~~~~~~~~~~~~~~~~~~~~~~~~~~~~~~~~~~~~~~~~~~~~~~~~~~~~~~~~~~~~~~~~~~~~

Comment to suggest any corrections.
View corrections from users for better playing perception.

UPDATES:

24/08/2009 - added solo for GTR 2 (Thanks to ollie044)
           - vibrato and sliding modification
comments
We did not receive enough feedback on this tab! Please rate:
print report bad tab
1 2 3 4 5
2 comments total.
0 reply
ollie044 wrote on August 17 2009, 07:12 am

The background solo in the middle is:

e|||--------------------------|--------------------------|
B|||--------------------------|---------------------9-9--|
G|||--5/7-7-7--7-7-8-7--5-5---|---5/7-7-7--7-7-8-7-------|
D|||--------------------------|--------------------------| x2
A|||--------------------------|--------------------------|
D|||--------------------------|--------------------------|

Or thereabouts :)

Good tab though :)

0 reply
rocknrap wrote on September 4 2010, 11:01 am

i think....

d------------666-555-3--|------------333-555-6--|
a------3/5~--666-555-3--|------3/5~--333-555-6--|
d--0-0-------666-555-3--|--0-0-------333-555-6--|
........
.......
........
33
d------------999-888-6--|------------666-888-9--|
a------6/8~--999-888-6--|------6/8~--666-888-9--|
d--3-3-------999-888-6--|--3-3-------666-888-9--|

I want to post or [tab]
guest
You may want to rate the tab now too:
select rating
Please do not post tabs as comments. Select "correction" instead!