Oops, an error
Loading. Please wait.

Tj Monterde - Ikaw At Ako Tab

25,588 views 186 this week
4 commentsread comments
1 2 3 4 5
please rate
add to favorites
launch autoscroll
font size
0
reset
how to read this tab
guitar tuner
Autoscroll
slow
fast
+/-
esc
set tempo
stop
Help us to improve Ultimate-Guitar.com Take our survey!
×
Tabbed by : Francis Poquita
Email: francovillarta@gmail.com

Greetings to Jeremie Escalera!!! ang POGI POGI 

Standard Tuning: E A D G B e
Not so sure about the second part but I think I got the first part.

[First Part]

e|-----------------11-----------------|
B|----7-7/9--9/11-----11-9-7-9--9/11--|
G|--6---------------------------------|
D|------------------------------------|
A|------------------------------------|
E|------------------------------------|


[Second Part]

e|-----------------11---------------------|
B|----7-7/9--9/11-----11-9-11-7-----------|
G|--6---------------------------6h7-------|
D|-----------------------------------6h7--|
A|----------------------------------------|
E|----------------------------------------|

************************************

| h  Hammer-on
| /  Slide up

************************************

The end!

( you can also slide the hammer part to the seventh fret then going back to six quickly.)
Suggest correction
Give kudos to tab author, rate the tab!
1 2 3 4 5
comments
print report bad tab
4 comments total. Showing first comments.
+1 reply
aeranjon.dirakk 32 wrote on July 2 2013, 11:23 pm

First Part
|-----------------9-----------------|
|----7-7/9--9/11-----11-9-7-9--9/11--|
|--6---------------------------------|
|------------------------------------|
|------------------------------------|
|------------------------------------|

Second Part
|-----------------9---------------------|
|----7-7/9--9/11-----11-9-11-7-----------|
|--6---------------------------6h7-------|
|-----------------------------------6h7--|
|----------------------------------------|
|----------------------------------------|

0 reply
FrancisPoquita 37 wrote on July 15 2013, 10:42 pm

thanks sa correction.

0 reply
pjrs_05 21 wrote on May 15 2014, 12:07 am

paano po ba gumawa ng sariling post . ?

guest
You may want to rate the tab now too:
select rating
Wanna post a correction for this tab? Suggest correction