Oops, an error
Loading. Please wait.

To Kill Achilles - Confessions Tab

443 views 1 this week
no commentswrite comment
1 2 3 4 5
please rate
add to favorites
launch autoscroll
font size
0
reset
how to read this tab
guitar tuner
Autoscroll
slow
fast
+/-
esc
set tempo
stop
Help us to improve Ultimate-Guitar.com Take our survey!
×
Author
marc602 43
To Kill Achilles
Confessions

Love these guys!!
Such fun song to play and the tabs is more or less perfect as far
as i am aware, not sure on the clean intro bit tho, please rate!!

Guitar 1 - Mark Sharp
Guitar 2 - Lewis Donaldson

Tunning
C#
G#
E
B
F#
B


Intro
0.30

Guitar 1
[-5-----------5-----------5---------5-----------5---------5-----------5---------8---------------|
[---6-----6-----6-----6-----6---6-----6-----6-----6---6-----6-----6-----6---8-----8-----------8-|
[-----7 ----7-----7-----7---------7-----7-----7---------7-----7-----7-----9---9-----9----9------|
[-------0-----------0---------0-----------0---------8-----------8---------------------10---10---|
[-----------------------------------------------------------------------------------------------|
[-----------------------------------------------------------------------------------------------|
Guitar 2
[-----------------------------------------------------------------------------------------------|
[-----------------------------------------------------------------------------------------------|
[-----------------------------------------------------------------------------------------------|
[-------0---------------------0---------------------8---------------------10--------------------|
[-------0---------------------0---------------------8---------------------10--------------------|
[-------0---------------------0---------------------8---------------------10--------------------|
       [:x2                                                                              :]


"CUT"


0.56

Both guitars
------------------------------------------------------------------|
------------------------------------------------------------------|
------------------------------------------------------------------|
------------------------------------------------------------------|
--------------00--------------00----------------------------------|
-00-0000-0-00-00-00-0000-0-00-00-88888888888888887777777733333333-|
[: x2                                                           :]



Hardcore bit
1.22

Guitar 1
-------5--5--5------------5--5--5----------------------------------8------------8-------|
--------6--6--6------------6--6--6----------------------------8------8------8-----8-----|
-7-77----7--7--7----7-77----7--7--7----7-77777-1010101010-9-9---9------9--9---9-----9---|
-0-00---------------0-00---------------8-88888-888888888--------------------------------|
----------------------------------------------------------------------------------------|
----------------------------------------------------------------------------------------|
Guitar 2
----------------------------------------------------------------------------------------|
----------------------------------------------------------------------------------------|
----------------------------------------------------------------------------------------|
-0-------0----0-----0-------0----0-----8-------8----8-----10------------10------10------|
-0-00000-0-00-0-00--0-00000-0-00-0-00--8-88888-8-88-8-88--10-1010101010-10-1010-10-1010-|
-0-00000-0-00-0-00--0-00000-0-00-0-00--8-88888-8-88-8-88--10-1010101010-10-1010-10-1010-|
[:x2                                                                                  :]



Breakdown
1.52

Guitar 1
-------------------------------------------------|
-------------------------------------------------|
-------------------------------------------------|
-------------------------------------------------|
-0-0-00000-00----0-0-00000-00-00-0-0-00000-00-00-|
-0-0-00000-00----0-0-00000-00-00-0-0-00000-00-00-|
Guitar 2
-------------------------------------------------|
-------------------------------------------------|
-------------------------------------------------|
-------------------------------------------------|
-----------------0-0-00000-00-00-0-0-00000-00-00-|
-----------------0-0-00000-00-00-0-0-00000-00-00-|
                [:x8                           :]



2.13

Guitar 1
----------------------------------|
----------------------------------|
----------------------------------|
-8-8-8-8-8-8-8-8-8-8-8-8-8-8-8-8--|
-8-8-8-8-8-8-8-8-8-8-8-8-8-8-8-8--|
-8-8-8-8-8-8-8-8-8-8-8-8-8-8-8-8--|
Guitar 2
----------------------------------|
----------------------------------|
-----------------1414141414141414-|
----------------------------------|
-----------------1212121212121212-|
----------------------------------|



Chorus
2.16

Both Guitar
-------------------------------------------------------------------------------------|
-------------------------------------------------------------------------------------|
-------------------------------------------------------------------------------------|
-------------------------------------------------------------------------------------|
-8888888888888888880000000033333333-8888888888888888-0-0-0-0-0-0-0-0-3-3-3-3-3-3-3-3-|
-8888888888888888880000000033333333-8888888888888888-0-0-0-0-0-0-0-0-3-3-3-3-3-3-3-3-|
[:x2                                                                               :]



Bass fill
2.39

Both Guitars
----------------------------------|
----------------------------------|
----------------------------------|
-0~~~~~~~~~~~~~~~~----------------|
-0~~~~~~~~~~~~~~~~----------------|
-0~~~~~~~~~~~~~~~~----------------|



Epic build up
2.51

Guitar 1
----------------------------------------|
-101010101010106666666688888888---------|
-------------------------------77777777-|
----------------------------------------|
----------------------------------------|
----------------------------------------|
Guiar 2
----------------------------------------|
----------------------------------------|
----------------------------------------|
-8-8-8-8-8-8-8-000000003333333355555555-|
-8-8-8-8-8-8-8-000000003333333355555555-|
-8-8-8-8-8-8-8-000000003333333355555555-|
[:x10                                 :]



Outro
3.37

Both Guitars
------------------------------]
------------------------------]
-6---------------6------------]
-9---------------9------------]
------------------------------]
---00-0-0-0-0---0--00-0-0-0-0-]
[:x4                        :]



Hope you enjoy, if you find any mistakes or can help me out with the clean intro
email me xandyxx@live.co.uk
Suggest correction
What's this?
You can suggest a correction to this tab. Community and Mods will review your correction and vote to approve or reject it.
comments
We did not receive enough feedback on this tab! Please rate:
print report bad tab
1 2 3 4 5
guest
You may want to rate the tab now too:
select rating
Please do not post tabs as comments. Select "correction" instead!