Oops, an error
Loading. Please wait.

Tomska - I Like Trains Bass Tab

5,045 views 1 this week
no commentswrite comment
1 2 3 4 5
accurate
x 6
add to favorites
launch autoscroll
font size
0
reset
guitar tuner
Autoscroll
slow
fast
+/-
esc
set tempo
stop
Help us to improve Ultimate-Guitar.com Take our survey!
×
Author
Difficulty
novice
Hey everyone! This is my first tab so I hope you enjoy!

Quick Update:The actual artist of this song is Lil' Deuce Deuce

http://www.youtube.com/watch?v=hHkKJfcBXcw

You need to listen to the song to fully understand how to play this, the first note is 
short but then the second is slightly longer and off beat

Chorus
0:00
G-------------------------------------------|
D-------------------------------------------|
A-5-5~-2-2~-----------5-5~-2-2~-------------|
E-----------2-2~-3-3~-----------2-2~-3~-----|


This second part is more quiet than the last part, I play it with staccato quarter notes

Verse
0:11
G-------------------------------------------|
D-------------------------------------------|
A-5-5-2-2---------5-5-2-2-------------------|
E---------2-2-3-3---------2-2-3~------------|


Now its loud again...

Chorus
0:21
G-------------------------------------------|
D-------------------------------------------|
A-5-5~-2-2~-----------5-5~-2-2~-------------|
E-----------2-2~-3-3~-----------2-2~-3~-----|


Verse 2
0:32
G-------------------------------------------|
D-------------------------------------------|
A-5-5-2-2---------5-5-2-2-------------------|
E---------2-2-3-3---------2-2-3~------------|


Chorus
0:42
G-------------------------------------------|
D-------------------------------------------|
A-5-5~-2-2~-----------5-5~-2-2~-------------|
E-----------2-2~-3-3~-----------2-2~-3~-----|


Verse 3
0:53
G-------------------------------------------|
D-------------------------------------------|
A-5-5-2-2---------5-5-2-2-------------------|
E---------2-2-3-3---------2-2-3~------------|
                                I FEEL GREAT!


Heres a different verse...also, the last 6 notes in this verse are held out

Verse 4
1:03
G-------------------------------------------|
D-------------------------------------------|
A-5-5-2-2-----------2~--0~--2~--3~4~5~------|
E---------2-2-3-5~--------------------------|
               (the E5 is off beat)


Chorus
1:17
G-------------------------------------------|
D-------------------------------------------|
A-5-5~-2-2~-----------5-5~-2-2~-------------|
E-----------2-2~-3-3~-----------2-2~-3~-----|
 I LIKE TRAINS!


Its up to you if you want to do the slide down on this part but it must be fast if your 
going to

Verse 3
1:27
G-------------------------------------------|
D-------------------------------------------|
A-5-5-2-2---------5-5-2\--------------------|
E---------2-2-3-3---------------------------|
                        DONT LIKE TRAINS?


This part gets sung through twice, its not like the other chorus's

Chorus
1:35
G-------------------------------------------|
D-------------------------------------------|
A-5-5~-2-2~-----------5-5~-2-2~-------------|
E-----------2-2~-3-3~-----------2-2~-3-3~---|

G-------------------------------------------|
D-------------------------------------------|
A-5-5~-2-2~-----------5-5~-2-2~-----------5~|
E-----------2-2~-3-3~-----------2-2~-3-3~---|

Well, there's the whole song. Hope you enjoy!
If you have any suggestions email me at videoflyguy@gmail.com
Suggest correction new What's this?
You can suggest a correction to this tab. Community and Mods will review your correction and vote to approve or reject it.
comments
print report bad tab
guest
You may want to rate the tab now too:
select rating
Please do not post tabs as comments. Select "correction" instead!