Oops, an error
Loading. Please wait.

Totenspiel - Poncho In My Pocket Bass Tab

23 views 1 this week
no commentswrite comment
1 2 3 4 5
please rate
add to favorites
launch autoscroll
font size
0
reset
guitar tuner
Tab Pro tools
  • play this tab
  • loop segment
  • change instrument
  • show fretboard
  • metronome
×
Best way to learn
"Totenspiel - Poncho In My Pocket"
Autoscroll
slow
fast
+/-
esc
set tempo
stop
Contributor
It has sort of a bluesy fell to it.

G-0--5-5-7---5---7-8---7-5----8------------|
D------------------------------------------|
A------------------------------------------|
E------------------------------------------|

G-5---2-3--3--2-0----00-0-0-0-----0-0-00-0-----|
D----------------------------------------------|
A----------------------------------------------|
E----------------------------------------------|

G-8-7-8--11---8-7----2-5---5-0---0---5-5-7----|
D---------------------------------------------|
A---------------------------------------------|
E---------------------------------------------|



G-0-0--5-5--0-5--7-5---0-2-3-2----------------|
D---------------------------------------------|
A---------------------------------------------|
E---------------------------------------------|

G-0--4-5-6-7-0---0-9-8-7---------------|
D--------------------------------------|
A--------------------------------------|
E--------------------------------------|



G-2-2-3-2---------------------------------|
D----------3-2-0-2-3----------------------|
A-----------------------------------------|
E-----------------------------------------|



G-0-5--0-0--5-7-8--0-5-5-5-0---9-8-7----------|
D---------------------------------------------|
A---------------------------------------------|
E---------------------------------------------|


3x
G-5-7-5-8-7---|
D-------------|
A-------------|
E-------------|


G-5-0---0-3-4-5-6-7--0--9--7--5--------------|
D--------------------------------------------|
A--------------------------------------------|
E--------------------------------------------|


G-7--3-5-2---0----3-2-0-5-7-5-7-5--3--2|
D--------------------------------------|
A--------------------------------------|
E--------------------------------------|

G-0-------------------3-5-7-5-----------------|
D---------------------------------------------|
A---------------------------------------------|
E---------------------------------------------|

G-0--5-5-7---5---7-8---7-5----8------------|
D------------------------------------------|
A------------------------------------------|
E------------------------------------------|

G-5---2-3--3--2-0----00-0-0-0-----0-0-00-0-----|
D----------------------------------------------|
A----------------------------------------------|
E----------------------------------------------|

G-8-7-8--11---8-7------------------------------|
D---------------0------------------------------|
A----------------------------------------------|
E----------------------------------------------|

comments
We did not receive enough feedback on this tab! Please rate:
print report bad tab
1 2 3 4 5
I want to post or [tab]
guest
You may want to rate the tab now too:
select rating
Please do not post tabs as comments. Select "correction" instead!