Oops, an error
Loading. Please wait.

Townhouses - Cody Oliver Bass Tab

20 views 1 this week
no commentswrite comment
1 2 3 4 5
3 more votes to show rating
add to favorites
launch autoscroll
font size
0
reset
guitar tuner
Autoscroll
slow
fast
+/-
esc
set tempo
stop
Help us to improve Ultimate-Guitar.com Take our survey!
×
Author
00:00-00:37

G| ----------------------------------------------------------------|  [repeating]
D| ----------------------------------------------------------------|
A| -7-7-7/12-12-12-2-2-2-5-5-5-------------------------------------|
E| ----------------------------------------------------------------|


00:37-00:55

G| ---------------------7(h)-----------------------------------------|
D| -0h5h7--0h5h7----7(h)-----0h5h7--0h5h7----------------------------|
A| -----------------------------------------5h7p5--------------------|
E| ------------------------------------------------------------------|


00:56-01:23

G| ----------------------------------------------------------------|  [repeating]
D| ----------------------------------------------------------------|
A| -7-7-7/12-12-12-2-2-2-5-5-5-------------------------------------|
E| ----------------------------------------------------------------|



01:23-1:41

G| ------------9-----------------------9-------12-12---------------|
D| ------9h10----10-10-12-10-----9h10---10-10----------------------|
A| --0h7----------------------0h7----------------------------------|
E| ----------------------------------------------------------------|


01:41-01:59

G| ----------------------------------------------------------------|
D| ----------------------------------------------------------------|
A| --777-555-999-777-12-12-777-555-999-555-44----------------------|
E| ----------------------------------------------------------------|



01:59-02:26                      02:26-End

G| ----------------|------------------------------------------------------------|
D| ----------------|------------------------------------------------------------|
A| -7(ring)--------|---7-7-5-5-10 10 10-7-7-7-5-7-3-3-5-5-7-7-2-2-2-3-2-3-------|
E| --------8(ring)-|------------------------------------------------------------|
Suggest correction
Give kudos to tab author, rate the tab!
1 2 3 4 5
comments
print report bad tab
guest
You may want to rate the tab now too:
select rating
Wanna post a correction for this tab? Suggest correction