Oops, an error
Loading. Please wait.

Townhouses - Kelly Road Bass Tab

23 views 1 this week
no commentswrite comment
1 2 3 4 5
3 more votes to show rating
add to favorites
launch autoscroll
font size
0
reset
guitar tuner
Autoscroll
slow
fast
+/-
esc
set tempo
stop
Help us to improve Ultimate-Guitar.com Take our survey!
×
Author
00:00-00:14

G| -----------------------------------------------------------------------------|
D| -----------------------------------3-3-3--3-3-3--3-3-3[sustain]-3-3-3--------|
A| -----------------------------------------------------------------------------|
E| -1-1-1--1-1-1--1-1-1[sustain]--1-1-1----------------------------------1------|sustain]


00:18-00:34

G| ---------------------------------------------------------------|  [repeating]
D| -----------2-3-2----------2-3-2--------------------------------|
A| --3-3-33-3-------5--3-3-33------5------------------------------|
E| ---------------------------------------------------------------|



00:34-00:46

G| -----------------------------------------------------------------------------|
D| -----------------------------------3-3-3--3-3-3--3-3-3[sustain]-3-3-3--------|
A| -----------------------------------------------------------------------------|
E| -1-1-1--1-1-1--1-1-1[sustain]--1-1-1---------------------------------1-------|sustain]



00:52-01:09

G| ---------------------------------------------------------------|  [repeating]
D| -----------2-3-2----------2-3-2--------------------------------|
A| --3-3-33-3-------5--3-3-33------5------------------------------|
E| ---------------------------------------------------------------|



01:09-01:59

G| -------------------------------|  [repeating]
D| -------------3-3---------------|
A| ---------3-3-------------------|
E| -1-1-1-1-----------------------|



01:59-End

G| ---------------------------------------------------------------------------|
D| -----------------------------------3-3-3-33-333-3-3-33-333-3-33------------|
A| ---------------------------------------------------------------------------|
E| -1-1-1--1-1-1--1-1-1[sustain]--1-1-1---------------------------------------|
Suggest correction
Give kudos to tab author, rate the tab!
1 2 3 4 5
comments
print report bad tab
guest
You may want to rate the tab now too:
select rating
Wanna post a correction for this tab? Suggest correction