Oops, an error
Loading. Please wait.

Trapped Under Ice - World I Hate tab

2,085 views 1 this week
2 commentsread comments
1 2 3 4 5
1 last vote to show rating
add to favorites
×
Save as Personal and add changes to this tab that will be seen only by you. Learn more ›
×
You can save this tab as Personal to edit and correct it or add notes. All changes will be seen only by you. Learn more »
launch autoscroll
font size
0
reset
how to read this tab
guitar tuner
edit
Autoscroll
slow
fast
+/-
esc
set tempo
stop
Title: World I Hate
Artist: Trapped Under Ice
Album: Secrets of the World
Tuning: Drop D

This tab is designed for only one person to play (IE: no guitar 1 and guitar 2)

This is a great song by Trapped Under Ice, and I'm absolutely shocked that they 
have no tabs on UG as of yet.
Look forward to more tabs by these guys in the future.


Intro Riff A

E|-------------|
B|-------------|
G|-------------| PLAY
D|---0-----1---|  2X
A|---0-----1---|
D|---0-----1---|


Intro Riff B

E|-------------------------------------------------------------------------|
B|-------------------------------------------------------------------------|
G|---7---7-7-7-7-7/11-8---8-8-8-8-8\7-5\4--------------8\7------7/8--------| PLAY
D|---7---7-7-7-7-7/-9-8---8-8-8-8-8\7-5\4-444444444444-8\7-7777-7/8-8888---|  2X
A|---5---5-5-5-5-5/-9-6---6-6-6-6-6\5-3\2-222222222222-6\5-5555-5/6-6666---|
D|-------------------------------------------------------------------------|
                                        PM------------|  PM----|  PM----|

Intro Riff C

E|---/13--------------------------------------------/13-------------------------------------|
B|------------13h15p13---------------------/15-15------------13h15p13-----------------------|
G|-------14------------14p12----------------------------14------------14p12------13h14p13---| PLAY
D|---------------------------15h16------15----------------------------------15--------------|  2X
A|-----------------------------------17-----------------------------------------------------|
D|------------------------------------------------------------------------------------------|


Verse

E|--------------------------------------|
B|--------------------------------------|
G|--------------------------------------|
D|---0-------1-1-0---0-------------7*---|
A|---0-------1-1-0---0-------1-0-0------|
D|---0-------1-1-0---0-------1-0-0------|
                   PM-|    PM-----|

At the pinch harmonic on the 7th fret, bend it slightly upwards.


Breakdown

E|--------------------------|
B|--------------------------|
G|--------------------------| PLAY
D|----------1---------1-1---|  4X
A|--5-3-0-0-1---0-3-5-1-1---|
D|--0-0-0-0-1---0-0-0-1-1---|
  PM-------|  PM-----|

This is the one part I'm not sure about. It should be very close, at the very least, though.


Outro

E|-----------------------------------------------------------|
B|-----------------------------------------------------------|
G|-----------------------------------------------------------|
D|---0-------1-1-0-------1-1-0-------1-1-0-------1-1-0-------|
A|---0-------1-1-0-------1-1-0-------1-1-0-------1-1-0-------|
D|---0-------1-1-0-------1-1-0-------1-1-0-------1-1-0-------|

That's it! Enjoi!

(Also, as a note to the UG Staff, Trapped Under Ice is not a Miscellaneous 
Unsigned Band. They are actually quite 
well known in the hardcore community, and for ease of reference in my future 
tabbing, I would very much 
appreciate you adding their name to your database. Thanks!)

            
            
Suggest correction
Creating personal tab
Creating personal tab
You can edit any tab online and save it as your Personal.

You can edit, replace or remove any tab part or add personal notes – all changes will be seen only by you.

Personal tabs can be accessed anytime from any device, even offline.
Learn more »
Give kudos to tab author, rate the tab!
1 2 3 4 5
comments
print report bad tab
2 comments total.
0 reply
mikexdude 149 Aug 21, 2010 08:51 PM

Awesome tab, however, I was under the impression they played in D standard.

0 reply
punkforlife93 424 Dec 02, 2010 10:32 AM

You're right, this was more or less a tab for a friend in the Hardcore forum, and I had no idea what they played in...should get the gist though. :) Might edit it sometime, I don't play in D Standard much, so it depends.

guest
You may want to rate the tab now too:
select rating
Wanna post a correction for this tab? Suggest correction