Oops, an error
Loading. Please wait.

Traversay - Standby Tab

57 views 1 this week
no commentswrite comment
1 2 3 4 5
3 more votes to show rating
add to favorites
launch autoscroll
font size
0
reset
how to read this tab
guitar tuner
Autoscroll
slow
fast
+/-
esc
set tempo
stop
Help us to improve Ultimate-Guitar.com Take our survey!
×
Author
TRAVERSAY - Standby

Verse 1
        "What is real..."
e|-----------------------------------------|
h|-------0---------0---------0---------0---|
G|-----9---9-----9---9-----7---7-----6---6-|
D|---9---------8---------9---------7-------|	3x
A|-10--------9---------7---------7---------|
E|-----------------------------------------|
	   "What is fake..."
e|-------------------------------------------------------------|
h|-------0---------0---------0---------0---------0---------0---|
G|-----9---9-----9---9-----9---9-----6---6-----6---6-----6---6-|
D|---10--------9---------8---------5---------5---------5-------|
A|-10--------10--------9---------7---------7---------7---------|
E|-------------------------------------------------------------|

3x tacet ("There's no memories left...")

    "Prove me wrong..."
e|--0---------0---------0--------x-x-x-----x-x-x-|
h|--0---------0---------0--------x-x-x-----x-x-x-|
G|--9---------9---------9--------x-x-x-----x-x-x-|
D|-10---------9---------8--------x-x-x-----x-x-x-|
A|-10---------10--------9--------x-x-x-----x-x-x-|
E|-------------------------------x-x-x-----x-x-x-|

Chorus                                  4th time end on
e|--0---------0---------0--------0-0--     --0--|
h|--0---------0---------0--------0-0--     --0--|
G|--0---------4---------2--------6/5--     --5--|
D|--2---------4---------4--------7-7--     --7--|
A|--2---------2---------4--------7-7--     --7--|
E|--0---------------------------------     -----|

Verse 2
	"There's no memories left..."
e|-----------------------------------------|
h|-----------------------------------------|
G|-------9-9-------9-9-------7-7-------6-6-|
D|-9-9-9-----8-8-8-----9-9-9-----7-7-7-----|	3x
A|-----------------------------------------|
E|-----------------------------------------|
	"Prove me wrong..."
e|-------------------------------x-x-x-----x-x-x-|
h|-------------------------------x-x-x-----x-x-x-|
G|-------9-9-------9-9-------9-9-x-x-x-----x-x-x-|
D|-101010----9-9-9-----8-8-8-----x-x-x-----x-x-x-|
A|-------------------------------x-x-x-----x-x-x-|
E|-------------------------------x-x-x-----x-x-x-|

Chorus

Interlude (+Wah+Delay)
2x Chorus Chords
then
e|-----------------------------------------|
h|-----------------------------------------|
G|--9~--11~--12~--14~---9~--16~--21~--21~~-|
D|-----------------------------------------|
A|--7~---9~--10~--12~---7~--14~--19~--19~~-|
E|--0~---0~---0~---0~---0~---0~---0~---0~~-|

Chorus
end on Em
Suggest correction
Give kudos to tab author, rate the tab!
1 2 3 4 5
comments
print report bad tab
guest
You may want to rate the tab now too:
select rating
Wanna post a correction for this tab? Suggest correction