Oops, an error
Loading. Please wait.

Tropical Depression - 1081 Bass Tab

480 views 3 this week
no commentswrite comment
1 2 3 4 5
please rate
add to favorites
launch autoscroll
font size
0
reset
guitar tuner
Autoscroll
slow
fast
+/-
esc
set tempo
stop
Help us to improve Ultimate-Guitar.com Take our survey!
×
Author
Bass comes in at 0:11, as follows: 

G|-----|--------|--------|--------|--------|--------|--------|--------|--------|
D|-----|--------|--------|--------|--------|--------|--------|--------|--------|
A|---3-|-5------|----7---|--------|------3-|-5------|----7---|--------|------3-|
E|-5---|--------|------8-|-5------|----5---|--------|------8-|-5------|----5---|

Then, at 0:26, bass is as follows, throughout the song:

G|----------|-------|----------|-------|
D|----------|-------|----------|-------|
A|-55-35-35-|-5-573-|----------|-----3-|
E|----------|-------|-55-35-35-|-5-35--|

Vocals is actual recording of announcement of Proclamation 1081.
Suggest correction
Give kudos to tab author, rate the tab!
1 2 3 4 5
comments
print report bad tab
guest
You may want to rate the tab now too:
select rating
Wanna post a correction for this tab? Suggest correction