Oops, an error
Loading. Please wait.

Tropical Depression - Bilog Na Naman Ang Buwan Bass Tab

17,756 views 12 this week
1 commentread comment
1 2 3 4 5
3 more votes to show rating
add to favorites
launch autoscroll
font size
0
reset
guitar tuner
Autoscroll
slow
fast
+/-
esc
set tempo
stop
Help us to improve Ultimate-Guitar.com Take our survey!
×
Author
Intro:

	0:11
G|-r-|-------------------------------------|
D|-e-|-------------------------------------|
A|-s-|------------------------------(0:16)-|
E|-t-|-0/3-3-3x31-3-3x31-3-3x31-3---0/3----|

Verse pattern:
G|--------------------------------------------------------------------------|
D|--------------------5h7-5h7—-5h7-5h7--------------------7h9-7h9---7h9-7h9-|
A|--5h7-5h7—-5h7-5h7-3--------3---------5h7-5h7--5h7-5h7-5---------5--------|
E|-3--------3--------------------------3--------3---------------------------|

G|--------------------------------------------------------------------------|
D|--------------------5h7-5h7—-5h7-5h7--------------------7h9-7h9---7h9-7h9-|
A|--5h7-5h7—-5h7-5h7-3--------3---------5h7-5h7--5h7-5h7-5---------5--------|
E|-3--------3--------------------------3--------3---------------------------|

G|----------------------------------------|
D|--5h7-5h7—-5h7-5h7--7h9-7h9---7h9-7h9---|
A|-3-----------------5--------------------|
E|--------------------------------------3-|

Repeat Verse pattern at 0:46, but slide to 1st note

Repeat Verse pattern at 1:21, again sliding to 1st note

Filipino folk song and Apollo 11 landing audio at 1:44

Repeat Verse pattern at 2:06, again sliding to 1st note

Repeat Verse pattern at 2:38, again sliding to 1st note.  However, last note of pattern 
to . . .
G|---------------------|
D|---------------------|
A|----5h7-5h7—-5h7-5h7-|
E|-(3)--------3--------|

G|--------------------------------------|
D|--5h7-5h7—-5h7-5h7--7h9-7h9---7h9-7h9-|
A|-3-----------------5------------------|
E|--------------------------------------|

G|-------------------|
D|-------------------|
A|--5h7-5h7—-5h7-5h7-|
E|-3--------3--------|

G|--------------------------------------|
D|--5h7-5h7—-5h7-5h7--7h9-7h9---7h9-7h9-|
A|-3-----------------5------------------|
E|--------------------------------------|

G|-------------------|
D|-------------------|
A|--5h7-5h7—-5h7-5h7-|
E|-3--------3--------|

G|----------------------------------------|
D|--5h7-5h7—-5h7-5h7--7h9-7h9---7h9-7h9---|
A|-3-----------------5--------------------|
E|--------------------------------------3-|

(Sounds like a 5-string bass was used, as the slides sound longer/more frets than just 
on the E string. Papadom, pls verify)
Suggest correction
Give kudos to tab author, rate the tab!
1 2 3 4 5
comments
print report bad tab
1 comment total.
0 reply
jahleigh 10 Jun 29, 2010 10:20 PM

wala bang available na chords dito? i heard this song played by powerpuff corn.

guest
You may want to rate the tab now too:
select rating
Wanna post a correction for this tab? Suggest correction