Oops, an error
Loading. Please wait.

Troubled Beneath - Im On Fire tab

159 views 1 this week
no commentswrite comment
1 2 3 4 5
1 last vote to show rating
add to favorites
×
Save as Personal and add changes to this tab that will be seen only by you. Learn more ›
×
You can save this tab as Personal to edit and correct it or add notes. All changes will be seen only by you. Learn more »
launch autoscroll
font size
0
reset
how to read this tab
guitar tuner
edit
Autoscroll
slow
fast
+/-
esc
set tempo
stop
Author
Difficulty
I'M ON FIRE
                              by Troubled Beneath

 Intro
  Q=180
 4/4
  Gtr I
  E E E Q  E E E   E E E Q  E E E   E E E Q  E E E   E E E Q  E E E
|----------------|----------------|----------------|----------------|
|----------------|----------------|----------------|----------------|
|-------9--9-9-9-|-6-6-6----------|-------9--9-9-9-|-6-6-6----------|
|-7-7-7-9--9-9-9-|-6-6-6-9--9-9-9-|-7-7-7-9--9-9-9-|-6-6-6-9--9-9-9-|
|-7-7-7-7--7-7-7-|-4-4-4-9--9-9-9-|-7-7-7-7--7-7-7-|-4-4-4-9--9-9-9-|
|-5-5-5----------|-------7--7-7-7-|-5-5-5----------|-------7--7-7-7-|


  E E E Q  E E E   E E E Q  E E E   E E E Q  E E E   E E E Q  E E E
|----------------|----------------|----------------|-----------------|
|----------------|----------------|----------------|-----------------|
|-------9--9-9-9-|-6-6-6----------|-------9--9-9-9-|-6-6-6-----------|
|-7-7-7-9--9-9-9-|-6-6-6-9--9-9-9-|-7-7-7-9--9-9-9-|-6-6-6-9--9-9-9--|
|-7-7-7-7--7-7-7-|-4-4-4-9--9-9-9-|-7-7-7-7--7-7-7-|-4-4-4-9--9-9-9--|
|-5-5-5----------|-------7--7-7-7-|-5-5-5----------|-------7--7-7-7--|


  E E E Q  E E E   E E E Q  E E E
|----------------|----------------|
|----------------|----------------|
|-------9--9-9-9-|-6-6-6----------|
|-7-7-7-9--9-9-9-|-6-6-6-9--9-9-9-|
|-7-7-7-7--7-7-7-|-4-4-4-9--9-9-9-|
|-5-5-5----------|-------7--7-7-7-|


 Chorus
  E E E Q  E E E   E E E Q  E E E   E E E Q  E E E   E E E Q  E E E
|----------------|----------------|----------------|-----------------|
|----------------|----------------|----------------|-----------------|
|-------9--9-9-9-|-6-6-6----------|-------9--9-9-9-|-6-6-6-----------|
|-7-7-7-9--9-9-9-|-6-6-6-9--9-9-9-|-7-7-7-9--9-9-9-|-6-6-6-9--9-9-9--|
|-7-7-7-7--7-7-7-|-4-4-4-9--9-9-9-|-7-7-7-7--7-7-7-|-4-4-4-9--9-9-9--|
|-5-5-5----------|-------7--7-7-7-|-5-5-5----------|-------7--7-7-7--|


  E E E Q  E E E   E E E Q  E E E   E E E Q  E E E   E E E Q  E E E
|----------------|----------------|----------------|-----------------|
|----------------|----------------|----------------|-----------------|
|-------9--9-9-9-|-6-6-6----------|-------9--9-9-9-|-6-6-6-----------|
|-7-7-7-9--9-9-9-|-6-6-6-9--9-9-9-|-7-7-7-9--9-9-9-|-6-6-6-9--9-9-9--|
|-7-7-7-7--7-7-7-|-4-4-4-9--9-9-9-|-7-7-7-7--7-7-7-|-4-4-4-9--9-9-9--|
|-5-5-5----------|-------7--7-7-7-|-5-5-5----------|-------7--7-7-7--|


 Bridge
  E E E Q.   Q    E E E Q  E E E   E E E Q.   Q    E E E Q  E E E
|---------------|----------------|---------------|-----------------|
|---------------|----------------|---------------|-----------------|
|-9-9-9-9-------|----------6-6-6-|-9-9-9-9-------|----------6-6-6--|
|-9-9-9-9----7--|-9-9-9-9--6-6-6-|-9-9-9-9----7--|-9-9-9-9--6-6-6--|
|-7-7-7-7----7--|-9-9-9-9--4-4-4-|-7-7-7-7----7--|-9-9-9-9--4-4-4--|
|------------5--|-7-7-7-7--------|------------5--|-7-7-7-7---------|


 Verse
  E E E Q  Q  E   E E E E E E E E   E E E Q  Q  E   E E E E E E E E
|---------------|-----------------|---------------|------------------|
|---------------|-----------------|---------------|------------------|
|---------------|-9-9-9-9-9-9-9-9-|---------------|-9-9-9-9-9-9-9-9--|
|-7-7-7-9--9--9-|-9-9-9-9-9-9-9-9-|-7-7-7-9--9--9-|-9-9-9-9-9-9-9-9--|
|-7-7-7-9--9--9-|-7-7-7-7-7-7-7-7-|-7-7-7-9--9--9-|-7-7-7-7-7-7-7-7--|
|-5-5-5-7--7--7-|-----------------|-5-5-5-7--7--7-|------------------|


  E E E Q  Q  E   E E E E E E E E   E E E Q  Q  E   E E E E E E E E
|---------------|-----------------|---------------|------------------|
|---------------|-----------------|---------------|------------------|
|---------------|-9-9-9-9-9-9-9-9-|---------------|-9-9-9-9-9-9-9-9--|
|-7-7-7-9--9--9-|-9-9-9-9-9-9-9-9-|-7-7-7-9--9--9-|-9-9-9-9-9-9-9-9--|
|-7-7-7-9--9--9-|-7-7-7-7-7-7-7-7-|-7-7-7-9--9--9-|-7-7-7-7-7-7-7-7--|
|-5-5-5-7--7--7-|-----------------|-5-5-5-7--7--7-|------------------|


 Bridge
  E E E Q.   Q    E E E Q  E E E   E E E Q.   Q    E E E Q  E E E
|---------------|----------------|---------------|-----------------|
|---------------|----------------|---------------|-----------------|
|-9-9-9-9-------|----------6-6-6-|-9-9-9-9-------|----------6-6-6--|
|-9-9-9-9----7--|-9-9-9-9--6-6-6-|-9-9-9-9----7--|-9-9-9-9--6-6-6--|
|-7-7-7-7----7--|-9-9-9-9--4-4-4-|-7-7-7-7----7--|-9-9-9-9--4-4-4--|
|------------5--|-7-7-7-7--------|------------5--|-7-7-7-7---------|


 Chorus
  E E E Q  E E E   E E E Q  E E E   E E E Q  E E E   E E E Q  E E E
|----------------|----------------|----------------|-----------------|
|----------------|----------------|----------------|-----------------|
|-------9--9-9-9-|-6-6-6----------|-------9--9-9-9-|-6-6-6-----------|
|-7-7-7-9--9-9-9-|-6-6-6-9--9-9-9-|-7-7-7-9--9-9-9-|-6-6-6-9--9-9-9--|
|-7-7-7-7--7-7-7-|-4-4-4-9--9-9-9-|-7-7-7-7--7-7-7-|-4-4-4-9--9-9-9--|
|-5-5-5----------|-------7--7-7-7-|-5-5-5----------|-------7--7-7-7--|


  E E E Q  E E E   E E E Q  E E E   E E E Q  E E E   E E E Q  E E E
|----------------|----------------|----------------|-----------------|
|----------------|----------------|----------------|-----------------|
|-------9--9-9-9-|-6-6-6----------|-------9--9-9-9-|-6-6-6-----------|
|-7-7-7-9--9-9-9-|-6-6-6-9--9-9-9-|-7-7-7-9--9-9-9-|-6-6-6-9--9-9-9--|
|-7-7-7-7--7-7-7-|-4-4-4-9--9-9-9-|-7-7-7-7--7-7-7-|-4-4-4-9--9-9-9--|
|-5-5-5----------|-------7--7-7-7-|-5-5-5----------|-------7--7-7-7--|


 Solo
  Gtr III
  E E E Q   E E E   E E E Q   E E E
|-----------------|-----------------|
|-----------------|-----------------|
|-------9---9-9-9-|-6-6-6-----------|
|-7-7-7-9---9-9-9-|-6-6-6-9---9-9-9-|
|-7-7-7-7---7-7-7-|-4-4-4-9---9-9-9-|
|-5-5-5-----------|-------7---7-7-7-|
|
| Gtr IV
| E E E E E E E E   E E E E E E E E
|---------0-2-4-5-|-9-7-5-4-0-------|
|-----0-3---------|-----------3-0---|
|-1-2-------------|---------------2-|
|-----------------|-----------------|
|-----------------|-----------------|
|-----------------|-----------------|


  E E E Q   E E E   E E E Q     E   E   E
|-----------------|--------------------------|
|-----------------|--------------------------|
|-------9---9-9-9-|-6-6-6--------------------|
|-7-7-7-9---9-9-9-|-6-6-6-9-----9---9---9----|
|-7-7-7-7---7-7-7-|-4-4-4-9-----9---9---9----|
|-5-5-5-----------|-------7-----7---7---7----|
|
| E E E E E E E E   E E E E S S S S S S S S
|---------0-4-5-7-|--------------------------|
|-----0-3---------|-7-5-3-2------------------|
|-2-1-------------|---------2-4-2-4-2-4-2-4--|
|-----------------|--------------------------|
|-----------------|--------------------------|
|-----------------|--------------------------|


  Gtr IV
  E E E Q          E E E   E E E Q  E E E
|------------------------|----------------|
|------------------------|----------------|
|-------9----------9-9-9-|-6-6-6----------|
|-7-7-7-9----------9-9-9-|-6-6-6-9--9-9-9-|
|-7-7-7-7----------7-7-7-|-4-4-4-9--9-9-9-|
|-5-5-5------------------|-------7--7-7-7-|
|
| Gtr III
| E E E S S +Q       E E         W
|------------------------|----------------|
|------------------------|----------------|
|-----5-7s9-(9)b10r==7-9-|----------------|
|-5-7--------------------|----------------|
|------------------------|----------------|
|------------------------|----------------|


  E E E Q       E E E   E E E Q   E E E
|---------------------|-----------------|
|---------------------|-----------------|
|-------9-------9-9-9-|-6-6-6-----------|
|-7-7-7-9-------9-9-9-|-6-6-6-9---9-9-9-|
|-7-7-7-7-------7-7-7-|-4-4-4-9---9-9-9-|
|-5-5-5---------------|-------7---7-7-7-|
|
| E E E E +Q      E E           W
|---------------------|-----------------|
|---------------------|-----------------|
|-----5-7-(7)b8r==5-7-|-----------------|
|-5-7-----------------|-----------------|
|---------------------|-----------------|
|---------------------|-----------------|


 Verse Two
  Gtr I
  E E E Q  Q  E   E E E E E E E E   E E E Q  Q  E   E E E E E E E E
|---------------|-----------------|---------------|------------------|
|---------------|-----------------|---------------|------------------|
|---------------|-9-9-9-9-9-9-9-9-|---------------|-9-9-9-9-9-9-9-9--|
|-7-7-7-9--9--9-|-9-9-9-9-9-9-9-9-|-7-7-7-9--9--9-|-9-9-9-9-9-9-9-9--|
|-7-7-7-9--9--9-|-7-7-7-7-7-7-7-7-|-7-7-7-9--9--9-|-7-7-7-7-7-7-7-7--|
|-5-5-5-7--7--7-|-----------------|-5-5-5-7--7--7-|------------------|
|
| Gtr II
| E E E Q  Q  E   E E E E E E E E   E E E Q  Q  E   E E E E E E E E
|---------------|-----------------|---------------|------------------|
|---------------|-----------------|---------------|------------------|
|---------------|-9-9-9-9-9-9-9-9-|---------------|-9-9-9-9-9-9-9-9--|
|-7-7-7-9--9--9-|-9-9-9-9-9-9-9-9-|-7-7-7-9--9--9-|-9-9-9-9-9-9-9-9--|
|-7-7-7-9--9--9-|-7-7-7-7-7-7-7-7-|-7-7-7-9--9--9-|-7-7-7-7-7-7-7-7--|
|-5-5-5-7--7--7-|-----------------|-5-5-5-7--7--7-|------------------|


 Bridge
  E E E Q.   Q    E E E Q  E E E   E E E Q.   Q    E E E Q  E E E
|---------------|----------------|---------------|-----------------|
|---------------|----------------|---------------|-----------------|
|-9-9-9-9-------|----------6-6-6-|-9-9-9-9-------|----------6-6-6--|
|-9-9-9-9----7--|-9-9-9-9--6-6-6-|-9-9-9-9----7--|-9-9-9-9--6-6-6--|
|-7-7-7-7----7--|-9-9-9-9--4-4-4-|-7-7-7-7----7--|-9-9-9-9--4-4-4--|
|------------5--|-7-7-7-7--------|------------5--|-7-7-7-7---------|
|
| E E E Q.   Q    E E E Q  E E E   E E E Q.   Q    E E E Q  E E E
|---------------|----------------|---------------|-----------------|
|---------------|----------------|---------------|-----------------|
|-9-9-9-9-------|----------6-6-6-|-9-9-9-9-------|----------6-6-6--|
|-9-9-9-9----7--|-9-9-9-9--6-6-6-|-9-9-9-9----7--|-9-9-9-9--6-6-6--|
|-7-7-7-7----7--|-9-9-9-9--4-4-4-|-7-7-7-7----7--|-9-9-9-9--4-4-4--|
|------------5--|-7-7-7-7--------|------------5--|-7-7-7-7---------|


 Chorus
  E E E Q  E E E   E E E Q  E E E   E E E Q  E E E   E E E Q  E E E
|----------------|----------------|----------------|-----------------|
|----------------|----------------|----------------|-----------------|
|-------9--9-9-9-|-6-6-6----------|-------9--9-9-9-|-6-6-6-----------|
|-7-7-7-9--9-9-9-|-6-6-6-9--9-9-9-|-7-7-7-9--9-9-9-|-6-6-6-9--9-9-9--|
|-7-7-7-7--7-7-7-|-4-4-4-9--9-9-9-|-7-7-7-7--7-7-7-|-4-4-4-9--9-9-9--|
|-5-5-5----------|-------7--7-7-7-|-5-5-5----------|-------7--7-7-7--|
|
| E E E Q  E E E   E E E Q  E E E   E E E Q  E E E   E E E Q  E E E
|----------------|----------------|----------------|-----------------|
|----------------|----------------|----------------|-----------------|
|-------9--9-9-9-|-6-6-6----------|-------9--9-9-9-|-6-6-6-----------|
|-7-7-7-9--9-9-9-|-6-6-6-9--9-9-9-|-7-7-7-9--9-9-9-|-6-6-6-9--9-9-9--|
|-7-7-7-7--7-7-7-|-4-4-4-9--9-9-9-|-7-7-7-7--7-7-7-|-4-4-4-9--9-9-9--|
|-5-5-5----------|-------7--7-7-7-|-5-5-5----------|-------7--7-7-7--|


  E E E Q  E E E   E E E Q  E E E   E E E Q  E E E   E E E Q  E E E
|----------------|----------------|----------------|-----------------|
|----------------|----------------|----------------|-----------------|
|-------9--9-9-9-|-6-6-6----------|-------9--9-9-9-|-6-6-6-----------|
|-7-7-7-9--9-9-9-|-6-6-6-9--9-9-9-|-7-7-7-9--9-9-9-|-6-6-6-9--9-9-9--|
|-7-7-7-7--7-7-7-|-4-4-4-9--9-9-9-|-7-7-7-7--7-7-7-|-4-4-4-9--9-9-9--|
|-5-5-5----------|-------7--7-7-7-|-5-5-5----------|-------7--7-7-7--|
|
| E E E Q  E E E   E E E Q  E E E   E E E Q  E E E   E E E Q  E E E
|----------------|----------------|----------------|-----------------|
|----------------|----------------|----------------|-----------------|
|-------9--9-9-9-|-6-6-6----------|-------9--9-9-9-|-6-6-6-----------|
|-7-7-7-9--9-9-9-|-6-6-6-9--9-9-9-|-7-7-7-9--9-9-9-|-6-6-6-9--9-9-9--|
|-7-7-7-7--7-7-7-|-4-4-4-9--9-9-9-|-7-7-7-7--7-7-7-|-4-4-4-9--9-9-9--|
|-5-5-5----------|-------7--7-7-7-|-5-5-5----------|-------7--7-7-7--|


  E E E Q  E E E   E E E Q  E E E   E E E Q  E E E   E E E Q  E E E
|----------------|----------------|----------------|-----------------|
|----------------|----------------|----------------|-----------------|
|-------9--9-9-9-|-6-6-6----------|-------9--9-9-9-|-6-6-6-----------|
|-7-7-7-9--9-9-9-|-6-6-6-9--9-9-9-|-7-7-7-9--9-9-9-|-6-6-6-9--9-9-9--|
|-7-7-7-7--7-7-7-|-4-4-4-9--9-9-9-|-7-7-7-7--7-7-7-|-4-4-4-9--9-9-9--|
|-5-5-5----------|-------7--7-7-7-|-5-5-5----------|-------7--7-7-7--|
|
| E E E Q  E E E   E E E Q  E E E   E E E Q  E E E   E E E Q  E E E
|----------------|----------------|----------------|-----------------|
|----------------|----------------|----------------|-----------------|
|-------9--9-9-9-|-6-6-6----------|-------9--9-9-9-|-6-6-6-----------|
|-7-7-7-9--9-9-9-|-6-6-6-9--9-9-9-|-7-7-7-9--9-9-9-|-6-6-6-9--9-9-9--|
|-7-7-7-7--7-7-7-|-4-4-4-9--9-9-9-|-7-7-7-7--7-7-7-|-4-4-4-9--9-9-9--|
|-5-5-5----------|-------7--7-7-7-|-5-5-5----------|-------7--7-7-7--|


  E E E Q  E E E   E E E Q  E E E   E E E Q  E E E   E E E Q  E E E
|----------------|----------------|----------------|-----------------|
|----------------|----------------|----------------|-----------------|
|-------9--9-9-9-|-6-6-6----------|-------9--9-9-9-|-6-6-6-----------|
|-7-7-7-9--9-9-9-|-6-6-6-9--9-9-9-|-7-7-7-9--9-9-9-|-6-6-6-9--9-9-9--|
|-7-7-7-7--7-7-7-|-4-4-4-9--9-9-9-|-7-7-7-7--7-7-7-|-4-4-4-9--9-9-9--|
|-5-5-5----------|-------7--7-7-7-|-5-5-5----------|-------7--7-7-7--|
|
| E E E Q  E E E   E E E Q  E E E   E E E Q  E E E   E E E Q  E E E
|----------------|----------------|----------------|-----------------|
|----------------|----------------|----------------|-----------------|
|-------9--9-9-9-|-6-6-6----------|-------9--9-9-9-|-6-6-6-----------|
|-7-7-7-9--9-9-9-|-6-6-6-9--9-9-9-|-7-7-7-9--9-9-9-|-6-6-6-9--9-9-9--|
|-7-7-7-7--7-7-7-|-4-4-4-9--9-9-9-|-7-7-7-7--7-7-7-|-4-4-4-9--9-9-9--|
|-5-5-5----------|-------7--7-7-7-|-5-5-5----------|-------7--7-7-7--|


 Verse Three
  E E E Q  Q  E   E E E E E E E E   E E E Q  Q  E   E E E E E E E E
|---------------|-----------------|---------------|------------------|
|---------------|-----------------|---------------|------------------|
|---------------|-9-9-9-9-9-9-9-9-|---------------|-9-9-9-9-9-9-9-9--|
|-7-7-7-9--9--9-|-9-9-9-9-9-9-9-9-|-7-7-7-9--9--9-|-9-9-9-9-9-9-9-9--|
|-7-7-7-9--9--9-|-7-7-7-7-7-7-7-7-|-7-7-7-9--9--9-|-7-7-7-7-7-7-7-7--|
|-5-5-5-7--7--7-|-----------------|-5-5-5-7--7--7-|------------------|
|
| E E E Q  Q  E   E E E E E E E E   E E E Q  Q  E   E E E E E E E E
|---------------|-----------------|---------------|------------------|
|---------------|-----------------|---------------|------------------|
|---------------|-9-9-9-9-9-9-9-9-|---------------|-9-9-9-9-9-9-9-9--|
|-7-7-7-9--9--9-|-9-9-9-9-9-9-9-9-|-7-7-7-9--9--9-|-9-9-9-9-9-9-9-9--|
|-7-7-7-9--9--9-|-7-7-7-7-7-7-7-7-|-7-7-7-9--9--9-|-7-7-7-7-7-7-7-7--|
|-5-5-5-7--7--7-|-----------------|-5-5-5-7--7--7-|------------------|


  E E E Q  Q  E   E E E E E E E E   E E E Q  Q  E   E E E E E E E E
|---------------|-----------------|---------------|------------------|
|---------------|-----------------|---------------|------------------|
|---------------|-9-9-9-9-9-9-9-9-|---------------|-9-9-9-9-9-9-9-9--|
|-7-7-7-9--9--9-|-9-9-9-9-9-9-9-9-|-7-7-7-9--9--9-|-9-9-9-9-9-9-9-9--|
|-7-7-7-9--9--9-|-7-7-7-7-7-7-7-7-|-7-7-7-9--9--9-|-7-7-7-7-7-7-7-7--|
|-5-5-5-7--7--7-|-----------------|-5-5-5-7--7--7-|------------------|
|
| E E E Q  Q  E   E E E E E E E E   E E E Q  Q  E   E E E E E E E E
|---------------|-----------------|---------------|------------------|
|---------------|-----------------|---------------|------------------|
|---------------|-9-9-9-9-9-9-9-9-|---------------|-9-9-9-9-9-9-9-9--|
|-7-7-7-9--9--9-|-9-9-9-9-9-9-9-9-|-7-7-7-9--9--9-|-9-9-9-9-9-9-9-9--|
|-7-7-7-9--9--9-|-7-7-7-7-7-7-7-7-|-7-7-7-9--9--9-|-7-7-7-7-7-7-7-7--|
|-5-5-5-7--7--7-|-----------------|-5-5-5-7--7--7-|------------------|


 Bridge
  E E E Q.   Q    E E E Q  E E E   E E E Q.   Q    E E E Q  E E E
|---------------|----------------|---------------|-----------------|
|---------------|----------------|---------------|-----------------|
|-9-9-9-9-------|----------6-6-6-|-9-9-9-9-------|----------6-6-6--|
|-9-9-9-9----7--|-9-9-9-9--6-6-6-|-9-9-9-9----7--|-9-9-9-9--6-6-6--|
|-7-7-7-7----7--|-9-9-9-9--4-4-4-|-7-7-7-7----7--|-9-9-9-9--4-4-4--|
|------------5--|-7-7-7-7--------|------------5--|-7-7-7-7---------|
|
| E E E Q.   Q    E E E Q  E E E   E E E Q.   Q    E E E Q  E E E
|---------------|----------------|---------------|-----------------|
|---------------|----------------|---------------|-----------------|
|-9-9-9-9-------|----------6-6-6-|-9-9-9-9-------|----------6-6-6--|
|-9-9-9-9----7--|-9-9-9-9--6-6-6-|-9-9-9-9----7--|-9-9-9-9--6-6-6--|
|-7-7-7-7----7--|-9-9-9-9--4-4-4-|-7-7-7-7----7--|-9-9-9-9--4-4-4--|
|------------5--|-7-7-7-7--------|------------5--|-7-7-7-7---------|


 Chorus
  E E E Q  E E E   E E E Q  E E E   E E E Q  E E E   E E E Q  E E E
|----------------|----------------|----------------|-----------------|
|----------------|----------------|----------------|-----------------|
|-------9--9-9-9-|-6-6-6----------|-------9--9-9-9-|-6-6-6-----------|
|-7-7-7-9--9-9-9-|-6-6-6-9--9-9-9-|-7-7-7-9--9-9-9-|-6-6-6-9--9-9-9--|
|-7-7-7-7--7-7-7-|-4-4-4-9--9-9-9-|-7-7-7-7--7-7-7-|-4-4-4-9--9-9-9--|
|-5-5-5----------|-------7--7-7-7-|-5-5-5----------|-------7--7-7-7--|
|
| E E E Q  E E E   E E E Q  E E E   E E E Q  E E E   E E E Q  E E E
|----------------|----------------|----------------|-----------------|
|----------------|----------------|----------------|-----------------|
|-------9--9-9-9-|-6-6-6----------|-------9--9-9-9-|-6-6-6-----------|
|-7-7-7-9--9-9-9-|-6-6-6-9--9-9-9-|-7-7-7-9--9-9-9-|-6-6-6-9--9-9-9--|
|-7-7-7-7--7-7-7-|-4-4-4-9--9-9-9-|-7-7-7-7--7-7-7-|-4-4-4-9--9-9-9--|
|-5-5-5----------|-------7--7-7-7-|-5-5-5----------|-------7--7-7-7--|


  Gtr I
  E E E Q  E E E   E E E Q  E E E   E E E Q  E E E   E E E Q  E E E
|----------------|----------------|----------------|-----------------|
|----------------|----------------|----------------|-----------------|
|-------9--9-9-9-|-6-6-6----------|-------9--9-9-9-|-6-6-6-----------|
|-7-7-7-9--9-9-9-|-6-6-6-9--9-9-9-|-7-7-7-9--9-9-9-|-6-6-6-9--9-9-9--|
|-7-7-7-7--7-7-7-|-4-4-4-9--9-9-9-|-7-7-7-7--7-7-7-|-4-4-4-9--9-9-9--|
|-5-5-5----------|-------7--7-7-7-|-5-5-5----------|-------7--7-7-7--|


 Outtro
  E  E E Q   E  E  E   E  E E Q   E  E  E
|--------------------|--------------------|
|--------------------|--------------------|
|--------9---9--9--9-|-6--6-6-------------|
|-7--7-7-9---9--9--9-|-6--6-6-9---9--9--9-|
|-7--7-7-7---7--7--7-|-4--4-4-9---9--9--9-|
|-5--5-5-------------|--------7---7--7--7-|
|
| Q.     Q.    +Q      Q.     Q.    +Q
|-0------0-----(0)---|-4------2-----(2)---|
|-2------0-----(0)---|-6------4-----(4)---|
|-2------1-----(1)---|-6------4-----(4)---|
|-2------2-----(2)---|-6------4-----(4)---|
|--------------------|--------------------|
|--------------------|--------------------|


  E  E E Q   E  E  E   E  E E Q   E  E  E
|--------------------|-----------------------|
|--------------------|-----------------------|
|--------9---9--9--9-|-6--6-6----------------|
|-7--7-7-9---9--9--9-|-6--6-6-9---9--9--9----|
|-7--7-7-7---7--7--7-|-4--4-4-9---9--9--9----|
|-5--5-5-------------|--------7---7--7--7----|
|
| Q.     Q.    +Q      Q.     Q.    +Q
|-0------0-----(0)---|-4------2-----(2)------|
|-2------0-----(0)---|-6------4-----(4)------|
|-2------1-----(1)---|-6------4-----(4)------|
|-2------2-----(2)---|-6------4-----(4)------|
|--------------------|-----------------------|
|--------------------|-----------------------|


  E  E E Q   E  E  E   E  E E Q   E  E  E
|--------------------|--------------------|
|--------------------|--------------------|
|--------9---9--9--9-|-6--6-6-------------|
|-7--7-7-9---9--9--9-|-6--6-6-9---9--9--9-|
|-7--7-7-7---7--7--7-|-4--4-4-9---9--9--9-|
|-5--5-5-------------|--------7---7--7--7-|
|
| Q.     Q.    +Q      Q.     Q.    +Q
|-0------0-----(0)---|-4------2-----(2)---|
|-2------0-----(0)---|-6------4-----(4)---|
|-2------1-----(1)---|-6------4-----(4)---|
|-2------2-----(2)---|-6------4-----(4)---|
|--------------------|--------------------|
|--------------------|--------------------|


  E  E E Q   E  E  E   E  E E Q   E  E  E
|--------------------|---------------------*|
|--------------------|---------------------*|
|--------9---9--9--9-|-6--6-6--------------*|
|-7--7-7-9---9--9--9-|-6--6-6-9---9--9--9--*|
|-7--7-7-7---7--7--7-|-4--4-4-9---9--9--9--*|
|-5--5-5-------------|--------7---7--7--7--*|
|
| Q.     Q.    +Q      Q.     Q.    +Q
|-0------0-----(0)---|-4------2-----(2)----*|
|-2------0-----(0)---|-6------4-----(4)----*|
|-2------1-----(1)---|-6------4-----(4)----*|
|-2------2-----(2)---|-6------4-----(4)----*|
|--------------------|---------------------*|
|--------------------|---------------------*|

            
            
Suggest correction
Creating personal tab
Creating personal tab
You can edit any tab online and save it as your Personal.

You can edit, replace or remove any tab part or add personal notes – all changes will be seen only by you.

Personal tabs can be accessed anytime from any device, even offline.
Learn more »
Give kudos to tab author, rate the tab!
1 2 3 4 5
comments
print report bad tab
guest
You may want to rate the tab now too:
select rating
Wanna post a correction for this tab? Suggest correction