Oops, an error
Loading. Please wait.

True Art Worship - Der Einzige Bass Tab

819 views 1 this week
no commentswrite comment
1 2 3 4 5
please rate
add to favorites
launch autoscroll
font size
0
reset
guitar tuner
Autoscroll
slow
fast
+/-
esc
set tempo
stop
Help us to improve Ultimate-Guitar.com Take our survey!
×
Author
Difficulty
intermediate
Verse:

G|----------------------------------------------------------------|
D|----------------------------------------------------------------|
A|-----------------6----------------------------------------------| (4x)
E|-3-------------------------------6---------------5--------------|

   1 + 2 + 3 + 4 + 1 + 2 + 3 + 4 + 1 + 2 + 3 + 4 + 1 + 2 + 3 + 4 +
Der Einzige dem alle Anbetung gilt....


Chorus:
G|-----------------------------------------------------------------|
D|-----------------------------------------------------------------|
A|-----------------6-6-6-6-6-6-6-6---------------------------------| (4x)
E|-3-3-3-3-3-3-3-3-----------------6-6-6-6-6-6-6-6-1-1-1-1-1-1-1-1-|

   1 + 2 + 3 + 4 + 1 + 2 + 3 + 4 + 1 + 2 + 3 + 4 + 1 + 2 + 3 + 4 +

Du bist groß Herr, und allmächtig...


Solo:

G|---------------------------------|
D|----------------3---5---x-3---5--|
A|---------3-5h-x------------------|
E|-3---x---------------------------|
B|---------------------------------|
   1 + + + 2 +  + + 3 + + + 4 + + +

G|-----------3----5-----------------|
D|-----3---5------------------------|
A|-5--------------------------------|
E|----------------------------------|
B|----------------------------------|
   1 + + + 2 +  + + 3 + + + 4 + + +

G|------------------------------------|
D|-17-17--x-17---x-17---x-17—-17/14---|
A|------------------------------------|
E|------------------------------------|
B|------------------------------------|
   1 +  + + 2 +  + +  3 + + + 4 + + +

G|------------------------------------|
D|-17-17--x-17---x-17---x-17—---17/14-|
A|------------------------------------|
E|------------------------------------|
B|------------------------------------|
   1 +  + + 2 +  + +  3 + + + 4 + + +

G|---------17-15----17------------------|
D|---------------17-----17p-15--15--17--|
A|--------------------------------------|
E|--------------------------------------|
B|--------------------------------------|
   1 + + + 2  +  + +  3 +   + + 4 + + +

G|---------------------------------------x-|
D|-x-15------------------------------------|
A|-------17----16---x--16-17h-17—-15-17----|
E|-----------------------------------------|
B|-----------------------------------------|
   1 + + +  2  +  + +  3  +   + + 4  + + +



G|-18--17--15-17---15--------------------|
D|----------------------17--15-17---15---|
A|---------------------------------------|
E|---------------------------------------|
B|---------------------------------------|
   1 + + + 2  +  + +  3 + + +  4  + + +

G|------------------------------------|
D|-17--15—-17-15--17------------------|
A|------------------------------------|
E|------------------------------------|
B|------------------------------------|
   1 + + + 2  + + +  3 + + +  4 + + +
Suggest correction
Give kudos to tab author, rate the tab!
1 2 3 4 5
comments
print report bad tab
guest
You may want to rate the tab now too:
select rating
Wanna post a correction for this tab? Suggest correction