Oops, an error
Loading. Please wait.

Tryin 2 Reach - Forever Never Bass Tab

version 1
version 1

Whole song

Interactive

46 views 1 this week
no commentswrite comment
1 2 3 4 5
please rate
add to favorites
launch autoscroll
font size
0
reset
guitar tuner
Autoscroll
slow
fast
+/-
esc
set tempo
stop
Help us to improve Ultimate-Guitar.com Take our survey!
×
Author
Difficulty
novice
Forever & Never                                 


                                                                   Tryin 2 Reach
Bass Guitar



G||-------|-------|-------|-------|-------|-------|-------|-------|-------|
D||-------|-------|-------|-------|-------|-------|-------|-------|-------|
A||-------|-------|-------|-------|-------|-------|-------|-------|-------|
E||-------|-------|-------|-------|-------|-------|-------|-------|-------|


-------|-------|-------|-------|-------|-------|-------|-------|-------|-------|
-------|-------|-------|-------|-------|-------|-------|-------|-------|-------|
-------|-------|-------|-------|-------|-------|-------|-------|-------|-------|
-------|-------|-------|-------|-------|-------|-------|-------|-------|-------|


-------|-------|-------|-------|-------|-------|-------|-------|-------|-------|
-------|-------|-------|-------|-------|-------|-------|-------|-------|-------|
-------|-------|-------|-------|-------|-------|-------|-------|-------|-------|
-------|-------|-------|-------|-------|-------|-------|-------|-------|-------|


                                  E  E  E  E  E  E  E  E   
-------|-------|-------|-------|--------------------------|
-------|-------|-------|-------|--------------------------|
-------|-------|-------|-------|--------------------------|
-------|-------|-------|-------|--5--5--5--5--5--5--7--9--|


  E  E  E  E  E  E  E  E     E  E  E  E  E  E  E  E   
-----------------7--7--4--|--------------------------|
--------------------------|--------------------------|
--5--5--5--5--5-----------|--------------------5--4--|
--------------------------|--0--0--0--0--0--0--------|


  E  E  E  E  E  E  E  E     E  E  E  E  E  E  E  E   
--------------------------|--------------------------|
--------------------------|--------------------------|
--2--2--2--2--2-----------|--------------------------|
-----------------0--0--0--|--5--5--5--5--5--5--7--9--|


  E  E  E  E  E  E  E  E     E  E  E  E  E  E  E  E   
-----------------7--7--4--|--------------------------|
--------------------------|--------------------------|
--5--5--5--5--5-----------|--------------------5--4--|
--------------------------|--0--0--0--0--0--0--------|


  E  E  E  E  E  E  E  E     H.           E.  S    H.           E.  S  
--------------------------|---------------------|---------------------|
--------------------------|---------------------|---------------------|
--2--2--2--2--2-----------|---------------------|--5------------7---5-|
-----------------0--0--0--|--5------------7---9-|---------------------|


  H.           E.  S    H.           E  E     H.           E.  S  
---------------------|---------------4--4--|---------------------|
---------------------|---------------------|---------------------|
---------------5---4-|--2------------------|---------------------|
--0------------------|---------------------|--5------------7---9-|


  H.           E.  S    H.           E.  S    H.           E  E   
---------------------|---------------------|---------------4--4--|
---------------------|---------------------|---------------------|
--5------------7---5-|---------------5---4-|--2------------------|
---------------------|--0------------------|---------------------|


  S S S S S S S S S S S S S S S S    S S S S S S S S S S S S S S S S  
----------------------------------|----------------------7-7-7-7-7-7-|
----------------------------------|----------------------------------|
--5-5-5-5-5-5-5-5-5-5-5-5-5-5-5-5-|--5-5-5-5-5-5-5-5-5-5-------------|
----------------------------------|----------------------------------|


  S S S S S S S S S S S S S S S S    S S S S S S S S S S S S S S S S  
--6-------------------------------|----------------------------------|
----------------------------------|----------------------------------|
----4-4-4-4-4-4-4-4-4-4-4---7-7-7-|----------------------------------|
--------------------------0-------|--7-7-7-7-7-7-7-7-7-7-7-7-7-7-7-7-|


  S S S S S S S S S S S S S S S S    S S S S S S S S S S S S S S S S  
----------------------------------|----------------------7-7-7-7-7-7-|
----------------------------------|----------------------------------|
--5-5-5-5-5-5-5-5-5-5-5-5-5-5-5-5-|--5-5-5-5-5-5-5-5-5-5-------------|
----------------------------------|----------------------------------|


  S S S S S S S S S S S S S S S S    S S S S S S S S S S S S S S S S  
--6-------------------------------|----------------------------------|
----------------------------------|--------------------9-9-9-9-9-9-9-|
----4-4-4-4-4-4-4-4-4-4-4---7-7-7-|----------------------------------|
--------------------------0-------|--7-7-7-7-7-7-7-7-7---------------|


  E  E  E  E  E  E  E  E     E  E  E  E  E  E  E  E   
--------------------------|-----------------7--7--4--|
--------------------------|--------------------------|
--------------------------|--5--5--5--5--5-----------|
--5--5--5--5--5--5--7--9--|--------------------------|


  E  E  E  E  E  E  E  E     E  E  E  E  E  E  E  E   
--------------------------|--------------------------|
--------------------------|--------------------------|
--------------------5--4--|--2--2--2--2--2-----------|
--0--0--0--0--0--0--------|-----------------0--0--0--|


  E  E  E  E  E  E  E  E     E  E  E  E  E  E  E  E   
--------------------------|-----------------7--7--4--|
--------------------------|--------------------------|
--------------------------|--5--5--5--5--5-----------|
--5--5--5--5--5--5--7--9--|--------------------------|


  E  E  E  E  E  E  E  E     E  E  E  E  E  E  E  E   
--------------------------|--------------------------|
--------------------------|--------------------------|
--------------------5--4--|--2--2--2--2--2-----------|
--0--0--0--0--0--0--------|-----------------0--0--0--|


  E  E  E  E  E  E  E  E     E  E  E  E  E  E  E  E   
--------------------------|--------------------------|
--------------------------|--------------------------|
--------------------------|--4--5--5--5--5--5--5--5--|
--5--5--5--5--5--5--5--5--|--------------------------|


  E  E  E  E  E  E  E  E     E  E  E  E  E  E  E  E   
--------------------------|--------------------4--4--|
--------------------------|--------------------------|
--0--0--0--0--0--0--0--0--|--4--4--4--4--2--2--------|
--------------------------|--------------------------|


  E  E  E  E  E  E  E  E     E  E  E  E  E  E  E  E   
--------------------------|--------------------------|
--------------------------|--------------------------|
--------------------------|--4--5--5--5--5--5--5--5--|
--5--5--5--5--5--5--5--5--|--------------------------|


  E  E  E  E  E  E  E  E     E  E  E  E  E  E  E  E   
--------------------2--4--|--------------------------|
--------------------------|--------------7--7--7--7--|
--0--0--0--0--0--0--------|--------------------------|
--------------------------|--5--5--5--5--------------|


  S S S S S S S S S S S S S S S S    S S S S S S S S S S S S S S S S  
----------------------------------|----------------------7-7-7-7-7-7-|
----------------------------------|----------------------------------|
--5-5-5-5-5-5-5-5-5-5-5-5-5-5-5-5-|--5-5-5-5-5-5-5-5-5-5-------------|
----------------------------------|----------------------------------|


  S S S S S S S S S S S S S S S S    S S S S S S S S S S S S S S S S  
--6-------------------------------|----------------------------------|
----------------------------------|----------------------------------|
----4-4-4-4-4-4-4-4-4-4-4---7-7-7-|----------------------------------|
--------------------------0-------|--7-7-7-7-7-7-7-7-7-7-7-7-7-7-7-7-|


  S S S S S S S S S S S S S S S S    S S S S S S S S S S S S S S S S  
----------------------------------|----------------------7-7-7-7-7-7-|
----------------------------------|----------------------------------|
--5-5-5-5-5-5-5-5-5-5-5-5-5-5-5-5-|--5-5-5-5-5-5-5-5-5-5-------------|
----------------------------------|----------------------------------|


  S S S S S S S S S S S S S S S S    S S S S S S S S S S S S S S S S  
--6-------------------------------|----------------------------------|
----------------------------------|--------------------9-9-9-9-9-9-9-|
----4-4-4-4-4-4-4-4-4-4-4---7-7-7-|----------------------------------|
--------------------------0-------|--7-7-7-7-7-7-7-7-7---------------|


  W                    W                                     
--------------------|-------------------|-------------------|
--9~----------------|--L----------------|-------------------|
--------------------|-------------------|-------------------|
--------------------|-------------------|-------------------|


                                          E  E  E  E  E  E  E  E   
-------------------|-------------------|-----------------------9--|
-------------------|-------------------|--------------------------|
-------------------|-------------------|-----------------7--7-----|
-------------------|-------------------|--0--0--0--0--0-----------|


  E  E  E  E  E  E  E  E     E  E  E  E  E  E  E  E   
--------------------------|-----------------7--7--4--|
--------------------------|--------------------------|
--------------------------|--5--5--5--5--5-----------|
--5--5--5--5--5--5--7--9--|--------------------------|


  E  E  E  E  E  E  E  E     E  E  E  E  E  E  E  E   
--------------------------|--------------------------|
--------------------------|--------------------------|
--------------------5--4--|--2--2--2--2--2-----------|
--0--0--0--0--0--0--------|-----------------0--0--0--|


  E  E  E  E  E  E  E  E     E  E  E  E  E  E  E  E   
--------------------------|-----------------7--7--4--|
--------------------------|--------------------------|
--------------------------|--5--5--5--5--5-----------|
--5--5--5--5--5--5--7--9--|--------------------------|


  E  E  E  E  E  E  E  E     E  E  E  E  E  E  E  E   
--------------------------|--------------------------|
--------------------------|--------------------------|
--------------------5--4--|--2--2--2--2--2-----------|
--0--0--0--0--0--0--------|-----------------0--0--0--|


  E  E  E  E  E  E  E  E     E  E  E  E  E  E  E  E   
--------------------------|-----------------7--7--4--|
--------------------------|--------------------------|
--------------------------|--5--5--5--5--5-----------|
--5--5--5--5--5--5--7--9--|--------------------------|


  E  E  E  E  E  E  E  E     E  E  E  E  E  E  E  E   
--------------------------|--------------------------|
--------------------------|--------------------------|
--------------------5--4--|--2--2--2--2--2-----------|
--0--0--0--0--0--0--------|-----------------0--0--0--|


  E  E  E  E  E  E  E  E     E  E  E  E  E  E  E  E     W                  
--------------------------|--------------------------|--------------------|
--------------------------|--------------------------|--------------------|
--------------------5--4--|--2--2--2--2--2-----------|--5~----------------|
--0--0--0--0--0--0--------|-----------------0--0--0--|--------------------|


                                                        W                  
-----|-----|-----|-----|-----|-----|-----|-----|-----|--------------------|
-----|-----|-----|-----|-----|-----|-----|-----|-----|--------------------|
-----|-----|-----|-----|-----|-----|-----|-----|-----|--------------------|
-----|-----|-----|-----|-----|-----|-----|-----|-----|--5~----------------|


  H        H          
--------------------||
--------------------||
--------------------||
--L-----------------||




Duration Legend
---------------
W - whole
H - half
Q - quarter
E - 8th
S - 16th
T - 32nd
X - 64th
. - note dotted
|-n-|  - n-tuplets


Tablature Legend
----------------
L - tied note
x - dead note
g - grace note
(n) - ghost note
> - accentuded note
NH - natural harmonic
AH - artificial harmonic
TH - tapped harmonic
SH - semi harmonic
PH - pitch harmonic
h - hammer on
p - pull off
b - bend
br - bendRelease
pb - preBend
pbr - preBendRelease
brb - bendReleaseBend
\n/ - tremolo bar dip
\n - tremolo bar dive
-/n - tremolo bar Release up
/n\ - tremolo bar inverted dip
/n - tremolo bar return
-\n - tremolo bar Release down
S - shift slide
s - legato slide
/ -  slide into from below or out of upwards
\ -  slide into from above or out of downwards
~ - vibrato
W - wide vibrato
tr - trill
TP - tremolo picking
T - tapping
S - slap
P - pop
< - fade in
^ - brush up
v - brush down
Suggest correction
Give kudos to tab author, rate the tab!
1 2 3 4 5
comments
print report bad tab
guest
You may want to rate the tab now too:
select rating
Wanna post a correction for this tab? Suggest correction