Oops, an error
Loading. Please wait.

Turbowolf - Read Write Bass Tab

1,198 views 1 this week
no commentswrite comment
1 2 3 4 5
1 last vote to show rating
add to favorites
launch autoscroll
font size
0
reset
guitar tuner
Autoscroll
slow
fast
+/-
esc
set tempo
stop
Help us to improve Ultimate-Guitar.com Take our survey!
×
Author
Difficulty
Tuning
intermediate
D A D G B E
Intro:
G|---------------------------------------------------------------------|
D|---------------------------------------------------------------------|
A|-5-4-3---5-4-3---5-4-3---5-4-3---------------------------------------|
D|0------0-------0-------0---------------------------------------------|

G|-----------------------12-12----------12-12--------------------------|
D|-----8----------------------10-101010------8-8888--------------------|
A|8-10---7777-8-10-8-888-----------------------------------------------|
D|---------------------------------------------------------------------| x2

G|---------------|
D|---------------|
A|-5-4-3---5-4-3-|
D|0------0-------|

Verse:
G|-----------------------12-12----------12-12--------------------------|
D|-----8----------------------10-101010------8-8888--------------------|
A|8-10---7777-8-10-8-888-----------------------------------------------|
D|---------------------------------------------------------------------|


Interlude
G|---------------------------------------------------------------------|
D|---------------------------------------------------------------------|
A|66666666-5-333-------------------------------------------------------|
D|---------------8-777-3-55555555555555555-----------------------------| x4

G|---------------------------------------------------------------------|
D|---------------------------------------------------------------------|
A|66666666-5-333-------------------------------------------------------|
D|---------------8-777-3-55-3-555-3-555-3-555-3-5----------------------| x2

G|---------------------------------------------------------------------|
D|----8b----5b---------------------8b----------------------------------|
A|6666--3333------------------6666----3-1------------------------------|
D|------------5-3-55-3333-4-5------------------------------------------|
Suggest correction
Give kudos to tab author, rate the tab!
1 2 3 4 5
comments
print report bad tab
guest
You may want to rate the tab now too:
select rating
Wanna post a correction for this tab? Suggest correction