Oops, an error
Loading. Please wait.

Tus Kuv Hlub Tshaj - Bao Her Tab

752 views 3 this week
no commentswrite comment
1 2 3 4 5
3 more votes to show rating
add to favorites
launch autoscroll
font size
0
reset
how to read this tab
guitar tuner
Autoscroll
slow
fast
+/-
esc
set tempo
stop
Help us to improve Ultimate-Guitar.com Take our survey!
×
Author
Difficulty
Capo
novice
2nd fret
Tus Kuv Hlub Tshaj - Bao Her Tab
Standard tuning/Capo 2 or wherever you want to put the capo
Chords: C, Am, Dm, G


intro:
 C                                Am
-0----------0-------------------------------------------5--3------|
---------3-----1h3--1-------------1-----------1--3/5--------------|
-----0--------------------0h2-----2--------2----------------------|
----------------------------------------2-------------------------|
-3--------------------------------0-------------------------------|
------------------------------------------------------------------|

 Dm                            G
-------------0h1--0------------------------3----------------------|
-3------3-------------3--------3--------3-----3-------------------|
-----2---------------------2---0-----0-----------0----------------|
-0---------------------------------0----------------0-------------|
------------------------------------------------------------------|
-------------------------------3----------------------------------|

 C
------------------------0-----------------------------------------|
-1-------------------1--------------------------------------------|
-0------0---------0-----------------------------------------------|
-----2---------2--------------------------------------------------|
-3----------3-----------------------------------------------------|
------------------------------------------------------------------|

verses:
 C                             Am                 Dm
-0----------0-----------------------------------------------------|
---------1----------3------1---1-----------1------3------3--------|
-----0----------0------0-------2-------2--------------2-----------|
------------------------------------2-------------0---------------|
-3-----------------------------0----------------------------------|
------------------------------------------------------------------|

                    G                           C
-0h1--0---------------------------3-------------------------0-----|
------------3-------3----------3-----3---------1---------1--------|
----------------2---0------0------------0------0------0-----------|
-------------------------0-----------------0-------2--------------|
-----------------------------------------------3------------------|
--------------------3---------------------------------------------|

             Em             Am              Dm
--------------------------------------------1------------0h1--0---|
-1-----------0----------0---1---------1-----------3---------------|
-----0-------0------0-------2------2-----------2------------------|
---------2-------2--------------2-----------0---------------------|
----------------------------0-------------------------------------|
-------------0----------------------------------------------------|

             G
---------------------------3--------------|
-3-----------3----------3-----3-----------|
-----2-------0------0-------------0-------|
---------0-------0---------------------0--|
------------------------------------------|
-------------3----------------------------|

And repeat the whole tab for the whole song or just strum after the picking ends.
Suggest correction
Give kudos to tab author, rate the tab!
1 2 3 4 5
comments
print report bad tab
guest
You may want to rate the tab now too:
select rating
Wanna post a correction for this tab? Suggest correction