Oops, an error
Loading. Please wait.

Tustric - Without You Bass Tab

26 views 1 this week
no commentswrite comment
1 2 3 4 5
please rate
add to favorites
launch autoscroll
font size
0
reset
guitar tuner
Autoscroll
slow
fast
+/-
esc
set tempo
stop
Help us to improve Ultimate-Guitar.com Take our survey!
×
Author
Difficulty
SONG: WITHOUT YOU BASS TAB
ARTIST: TUSTRIC

INTRO: 4X
------------------------------------------------------------|
------------------------------------------------------------|
7-7-7-7-7-7-7-7---------------------------------------------|
-----------------5-5-5-5-7-7-7-7----------------------------|

VERSE 1:

------------------------------------------------------------|
------------------------------------------------------------|
7-7-7-7-7-7-7-7---------------------------------------------|
-----------------5-5-5-5-7-7-7-7----------------------------|

PRE-CHORUS:

----------------------------------------------------------|
----------------------------------------------------------|
----------------------------------------------------------|
5-5-5-5-5-5-5-5-7-7-7-7-7-7-7-7---------------------------|

CHORUS:

------------------------------------------------------------|
------------------------------------------------------------|
7-7-7-7-7-7-4-4-4-4-4-4-7-7-7-7-7-7-------------------------|
--------------------------------------7-7-7-7-7-7-----------|

AFTER CHORUS: *look above*

2ND VERSE: ( * = hold for 2 sec.)

-----------------------------------------------------------|
-----------------------------------------------------------|
7*------6*------4*-----9*----------------------------------|
-----------------------------------------------------------|


AFTER-VERSE: Repeat intro x4 (up down, up down motion)

PRE-CHORUS: *look above*

CHORUS: *look above*

OUTRO: REPEAT INTRO X2 THEN...

--------------------------------------------------|
--------------------------------------------------|
7*------------------------------------------------|
--------------------------------------------------|

END
Suggest correction
Give kudos to tab author, rate the tab!
1 2 3 4 5
comments
print report bad tab
guest
You may want to rate the tab now too:
select rating
Wanna post a correction for this tab? Suggest correction