Oops, an error
Loading. Please wait.

Tyler Ward - Ever Have Bass Tab

271 views 1 this week
no commentswrite comment
1 2 3 4 5
please rate
add to favorites
launch autoscroll
font size
0
reset
guitar tuner
Autoscroll
slow
fast
+/-
esc
set tempo
stop
Help us to improve Ultimate-Guitar.com Take our survey!
×
Difficulty
advanced
This is a song I wrote in my kitchen. Yes not all of my timing is correct but I hope you 
my song. Any questions message me at tylerrocksursox@aim.com.

( )= harmonics
 ~ = hold the note/s
 / = slide up
 \ = slide down

g|------------------------|
d|----------12-11---------|
a|----------------12~~~~~-|
e|-0~~~~~~~~~~~~-(12)-----|

g|-------------------------------------|
d|-------12/14--12-11-9-11/12~~~~~~~~~~|
a|-------------------------------------|
e|-0~~~~~~~~~~~~~~~~~~~~~~~~~~~9/10~~~~| X2

g|-----------------------------------|
d|-12-11-----------------------------|
a|-------12-12\7~~~~~~~~~~~~~~~~~~~~~|
e|---------------0~~~~~~~~~~~~~~~~~~~|

g|-----------------------------12-11~~~|
d|-----------------------12-11-0--0~~~~|
a|7/14~~~~~~~~~~~~~12-11-0--0----------|
e|-------0~~~~~~~~~0--0----------------|

g|------------------------------------------|
d|-------12-11-9/11-------------11/12-7~~~~~|
a|(12)--------------12~~~~-10-9-------------|
e|------------------------------------------|X2

g|-------------------------------------|
d|-------12/14--12-11-9-11/12~~~~~~~~~~|
a|-------------------------------------|
e|-0~~~~~~~~~~~~~~~~~~~~~~~~~~~9/10~~~~|

g|-------------------------------------|
d|-14\12-11----------------------------|
a|----------14-12-11-------------------|
e|-------------------12~~~~~~~~~~~~~~~~|
Suggest correction
Give kudos to tab author, rate the tab!
1 2 3 4 5
comments
print report bad tab
guest
You may want to rate the tab now too:
select rating
Please do not post tabs as comments. Select "correction" instead!