Oops, an error
Loading. Please wait.

Ultimate Animal - Showing Off Bass Tab

146 views 1 this week
no commentswrite comment
1 2 3 4 5
please rate
add to favorites
launch autoscroll
font size
0
reset
guitar tuner
Autoscroll
slow
fast
+/-
esc
set tempo
stop
Help us to improve Ultimate-Guitar.com Take our survey!
×
So this is just something i made up for fun the other day its just a giant bass solo


G-----------------------------------------| x1
D-2/7---5-3-2--3---3-7/9-10--9-7----------|
A-----7----------4----------------8-8-5---|
E-----------------------------------------|

G----------2-2-7-5-7------------------------| x2
D-0-0--5-4---------------------10-9-9-5--7--|
A-------------------------------------------|
E-------------------------------------------|

G-------------------------------------------| x2
D-5------1/3---4---6---6-7-9-------6-7-8-9--|
A---1-1/3---------------------5/2-7---------|
E-------------------------------------------|

G-----------------------------------------| x1
D--2-4------4-3-----4--5-----4-5----------|
A---------------5-3---2-6-------0---0-2-3-|
E-----------------------------------------|

G-------------------------------------------| x1
D-2-5------7-3------5--5--4-5---------------|
A-------------------------------------------|
E--0---0-2--------2---3--3---7---7-7-7------|

then finish it off with some fast slapping

G-------------------------------------------| x1
D-------------------------------------------|
A----------------------17-17-15-12-000------|
E--0000-5-5--7-7-55-12------0----------5/7--|

G-----------------------------------------| x1
D-----------------------------------------|
A-----------------------------------------|
E-0-0-0-0-1-1-3-1-3-1-00-1-0-1-3-3-1-3/1--|
Suggest correction
Give kudos to tab author, rate the tab!
1 2 3 4 5
comments
print report bad tab
guest
You may want to rate the tab now too:
select rating
Please do not post tabs as comments. Select "correction" instead!