Oops, an error
Loading. Please wait.

Ultrathin - Sticky Bass Tab

37 views 1 this week
no commentswrite comment
1 2 3 4 5
3 more votes to show rating
add to favorites
launch autoscroll
font size
0
reset
guitar tuner
Autoscroll
slow
fast
+/-
esc
set tempo
stop
Help us to improve Ultimate-Guitar.com Take our survey!
×
Author
Difficulty
intermediate
Sticky

G---------------------------------------------------|
D---------------------------------------------------|
A----7----7-------3-----3---------------------------|  X 6
E-5-5---5-5----1-1---1-1----------------------------|

G---------------------------------------------------|
D---------------------------------------------------|
A--0-0-0--3-3-3-5-5-5-6-----------------------------|  X 2 fast
E------------------------1-1-1-3-3-3-5-5-5-8--------|

G---------------------------------------------------|
D---------------------------------------------------|
A---5--7--5--------3---5---3------------------------|   X 4
E--5--------5-4---3-----------5-4-------------------|

G---------------------------------------------------|
D---------------------------------------------------|
A--0-0-0--3-3-3-5-5-5-6-----------------------------|  X 2 fast
E------------------------1-1-1-3-3-3-5-5-5-8--------|

G--------------------------------------------------|
D--------------------------------------------------|
A--0-0-0-0-0---------------------------------------|  X 6 ish fast
E------------0-1-1-0-------------------------------|

G----------------------------------------------------|
D----------------------------------------------------|
A---0-0-0--3-3-3-5-5-5-6-----------------------------| fast and hold 6 to end
E----------------------------------------------------|
Suggest correction
Give kudos to tab author, rate the tab!
1 2 3 4 5
comments
print report bad tab
guest
You may want to rate the tab now too:
select rating
Wanna post a correction for this tab? Suggest correction